Mxpx - Move To Bremerton Chords & Tabs

 

Move To Bremerton Chords & Tabs

Mxpx Chords & Tabs

Version: 2 Type: Tab 0 ratings
1 star 2 stars 3 stars 4 stars 5 stars
comments

Move To Bremerton Tab

   
------------------------------------------------------------------------
                Move to Bremerton(extended version) - Mxpx
------------------------------------------------------------------------
Tabbed by:NOfxmike
Email:someone028@excite.com
album: Let it happen(1998)
Tuning:standard
intro:(chords represent implied tonality)
  D                  G
e|----------------------------------|
B|----------------------------------|
G|----------------------------------|
D|-----7-----7---7--------9---------|
A|-5-5---5-5---5----10-10---10-9-9--|
E|----------------------------------|
PM|---| |---| |-|   |----|  |-----|
e|---------------------------------------------|
B|---------------------------------------------|
G|---------------------------------------------|
D|-7--------9------9---9--------9--------7---7\|
A|---9-7-7-----7-7---7----10-10---10-9-9---9---|
E|---------------------------------------------|
PM  |-----|   |---| |-|   |----|  |-----| |-|
Verse 1:
        When I meet a special girl
e|----------------------------3--3---3-3---3-3---3---3-3---3-3|
B|----------------------------3--3---3-3---3-3---3---3-3---3-3|
G|-7--7-7-7-7-7-7-7-7-7-7-7-7-4--4---4-4---4-4---4---4-4---4-4|
D|-7--7-7-7-7-7-7-7-7-7-7-7-7-5--5---5-5---5-5---5---5-5---5-5|
A|-5--5-5-5-5-5-5-5-5-5-5-5-5-5--5---5-5---5-5---5---5-5---5-5|
E|----------------------------3--3---3-3---3-3---3---3-3---3-3|
PM   |-----------------------|
       She always lives somewhere else in the world
e|----------------------------5--5---5-5---5-5---5---5-5---5-5|
B|----------------------------5--5---5-5---5-5---5---5-5---5-5|
G|-4--4-4-4-4-4-4-4-4-4-4-4-4-6--6---6-6---6-6---6---6-6---6-6|
D|-4--4-4-4-4-4-4-4-4-4-4-4-4-7--7---7-7---7-7---7---7-7---7-7|
A|-2--2-2-2-2-2-2-2-2-2-2-2-2-7--7---7-7---7-7---7---7-7---7-7|
E|----------------------------5--5---5-5---5-5---5---5-5---5-5|
PM   |-----------------------|
       Don't want to call her on the phone,
e|----------------------------3--3---3-3---3-3---3---3-3---3-3|
B|----------------------------3--3---3-3---3-3---3---3-3---3-3|
G|-7--7-7-7-7-7-7-7-7-7-7-7-7-4--4---4-4---4-4---4---4-4---4-4|
D|-7--7-7-7-7-7-7-7-7-7-7-7-7-5--5---5-5---5-5---5---5-5---5-5|
A|-5--5-5-5-5-5-5-5-5-5-5-5-5-5--5---5-5---5-5---5---5-5---5-5|
E|----------------------------3--3---3-3---3-3---3---3-3---3-3|
PM   |-----------------------|
      want to talk to her when i'm at home
e|----------------------------5--5---5-5---5-5---5---5-5---5-5|
B|----------------------------5--5---5-5---5-5---5---5-5---5-5|
G|-4--4-4-4-4-4-4-4-4-4-4-4-4-6--6---6-6---6-6---6---6-6---6-6|
D|-4--4-4-4-4-4-4-4-4-4-4-4-4-7--7---7-7---7-7---7---7-7---7-7|
A|-2--2-2-2-2-2-2-2-2-2-2-2-2-7--7---7-7---7-7---7---7-7---7-7|
E|----------------------------5--5---5-5---5-5---5---5-5---5-5|
PM   |-----------------------|

Bridge:

      Drop out of school and run away
e|------------------------------------------------------|
B|------------------------------------------------------|
G|----------------------------4--4-4-4-4-4-4-4-4-4-4-4-4|
D|-5--5-5-5-5-5-5-5-5-5-5-5-5-4--4-4-4-4-4-4-4-4-4-4-4-4|
A|-5--5-5-5-5-5-5-5-5-5-5-5-5-2--2-2-2-2-2-2-2-2-2-2-2-2|
E|-3--3-3-3-3-3-3-3-3-3-3-3-3---------------------------|
PM   |----------------------|    |----------------------|
     Quit your job, you've got a place to stay
e|------------------------------------------------------|
B|------------------------------------------------------|
G|-3--3-3-3-3-3-3-3-3-3-3-3-3-2--2-2-2-2-2-2-2-2-2-2-2-2|
D|-3--3-3-3-3-3-3-3-3-3-3-3-3-2--2-2-2-2-2-2-2-2-2-2-2-2|
A|-1--1-1-1-1-1-1-1-1-1-1-1-1-0--0-0-0-0-0-0-0-0-0-0-0-0|
E|------------------------------------------------------|
PM   |----------------------|    |----------------------|
     Pack your bags and hitch a ride
e|------------------------------------------------------|
B|------------------------------------------------------|
G|----------------------------4--4-4-4-4-4-4-4-4-4-4-4-4|
D|-5--5-5-5-5-5-5-5-5-5-5-5-5-4--4-4-4-4-4-4-4-4-4-4-4-4|
A|-5--5-5-5-5-5-5-5-5-5-5-5-5-2--2-2-2-2-2-2-2-2-2-2-2-2|
E|-3--3-3-3-3-3-3-3-3-3-3-3-3---------------------------|
PM   |----------------------|    |----------------------|
     Bremerton's a good place to reside
e|------------------------------------------------------|
B|------------------------------------------------------|
G|-3--3-3-3-3-3-3-3-3-3-3-3-3-2--2-2-2-2-2-2-2-2-2-2-2-2|
D|-3--3-3-3-3-3-3-3-3-3-3-3-3-2--2-2-2-2-2-2-2-2-2-2-2-2|
A|-1--1-1-1-1-1-1-1-1-1-1-1-1-0--0-0-0-0-0-0-0-0-0-0-0-0|
E|------------------------------------------------------|
 PM   |----------------------|   |------|

Chorus:
   Move to Bremerton,       we'll hang out
e|-3----3--3---3--3----3----3--3--3--3|
B|-3----3--3---3--3----3----3--3--3--3|
G|-4----4--4---4--4----4----4--4--4--4|
D|-5----5--5---5--5----5----5--5--5--5|
A|-5----5--5---5--5----5----5--5--5--5|
E|-3----3--3---3--3----3----3--3--3--3|

   Move to bremerton,     we'll go all out
e|-5----5--5---5--5----5----5--5--5--5|
B|-7----7--7---7--7----7----7--7--7--7|
G|-7----7--7---7--7----7----7--7--7--7|
D|-7----7--7---7--7----7----7--7--7--7|
A|-5----5--5---5--5----5----5--5--5--5|
E|------------------------------------|

   Move to bremerton, where you'll   be mine
e|-2----2--2---2--2----2----2--2---2--2---x-|
B|-3----3--3---3--3----3----3--3---3--3---x-|
G|-4----4--4---4--4----4----4--4---4--4---x-|
D|-4----4--4---4--4----4----4--4---4--4---x-|
A|-2----2--2---2--2----2----2--2---2--2---x-|
E|----------------------------------------x-|
                                          
e|-x----5--x-x--5--x-x---5--x-x-5|
B|-x----5--x-x--5--x-x---5--x-x-5|
G|-x----6--x-x--6--x-x---6--x-x-6|
D|-x----7--x-x--7--x-x---7--x-x-7|
A|-x----7--x-x--7--x-x---7--x-x-7|
E|-x----5--x-x--5--x-x---5--x-x-5|
        ^       ^        ^      ^          
   Move to bremerton, we'll hang out,
e|-3----3--3---3--3----3----3--3--3--3|
B|-3----3--3---3--3----3----3--3--3--3|
G|-4----4--4---4--4----4----4--4--4--4|
D|-5----5--5---5--5----5----5--5--5--5|
A|-5----5--5---5--5----5----5--5--5--5|
E|-3----3--3---3--3----3----3--3--3--3|

   Move to bremerton, we'll go all out
e|-5----5--5---5--5----5----5--5--5--5|
B|-7----7--7---7--7----7----7--7--7--7|
G|-7----7--7---7--7----7----7--7--7--7|
D|-7----7--7---7--7----7----7--7--7--7|
A|-5----5--5---5--5----5----5--5--5--5|
E|------------------------------------|

   Move to bremerton till the end     of time
e|-2----2--2---2--2----2----2--2---2--2---5|
B|-3----3--3---3--3----3----3--3---3--3---5|
G|-4----4--4---4--4----4----4--4---4--4---6|
D|-4----4--4---4--4----4----4--4---4--4---7|
A|-2----2--2---2--2----2----2--2---2--2---7|
E|----------------------------------------5|
                                          ^
e|-x-x---5--x-x--5--x-x---5--x-x-5|
B|-x-x---5--x-x--5--x-x---5--x-x-5|
G|-x-x---6--x-x--6--x-x---6--x-x-6|
D|-x-x---7--x-x--7--x-x---7--x-x-7|
A|-x-x---7--x-x--7--x-x---7--x-x-7|
E|-x-x---5--x-x--5--x-x---5--x-x-5|
         ^       ^        ^      ^ 

interlude:     
   
e|--------------------------------------------|
B|--------------------------------------------|
G|--------------------------------------------|
D|7--7-7-7-7-7-7---------7----7-------9-------|
A|5--5-5-5-5-5-5---5-5-5----5---10-10---10-9-9|
E|--------------------------------------------|
PM  |--|  |---|   |-----|  |-|  |----|  |-----|

e|----------------------------------------------|
B|----------------------------------------------|
G|----------------------------------------------|
D|-7--------9------9---9--------9--------7---7\-|
A|---9-7-7-----7-7---7----10-10---10-9-9---9----|
E|----------------------------------------------|
PM  |-----|   |---| |-|   |----|  |-----| |-|

Verse 2:
If you've got your hair then bleach it too
e|--------------------------------------------|
B|--------------------------------------------|
G|--------------------------------------------|
D|7--7-7-7-7-7-7---------7----7-------9-------|
A|5--5-5-5-5-5-5---5-5-5----5---10-10---10-9-9|
E|--------------------------------------------|
PM  |--|  |---|   |-----|  |-|  |----|  |-----|

e|----------------------------------------------|
B|----------------------------------------------|
G|----------------------------------------------|
D|-7--------9------9---9--------9--------7---7\-|
A|---9-7-7-----7-7---7----10-10---10-9-9---9----|
E|----------------------------------------------|
PM  |-----|   |---| |-|   |----|  |-----| |-|


You gotta know that I'll have a crush on you
e|--------------------------------------------|
B|--------------------------------------------|
G|--------------------------------------------|
D|7--7-7-7-7-7-7---------7----7-------9-------|
A|5--5-5-5-5-5-5---5-5-5----5---10-10---10-9-9|
E|--------------------------------------------|
PM  |--|  |---|   |-----|  |-|  |----|  |-----|
[ Tab from: http://www.guitartabs.cc/tabs/m/mxpx/move_to_bremerton_tab_ver_2.html ]
e|----------------------------------------------|
B|----------------------------------------------|
G|----------------------------------------------|
D|-7--------9------9---9--------9--------7---7\-|
A|---9-7-7-----7-7---7----10-10---10-9-9---9----|
E|----------------------------------------------|
PM  |-----|   |---| |-|   |----|  |-----| |-|

I'm a sucker for a short-haired girl with a pretty smile
e|--------------------------------------------|
B|--------------------------------------------|
G|--------------------------------------------|
D|7--7-7-7-7-7-7---------7----7-------9-------|
A|5--5-5-5-5-5-5---5-5-5----5---10-10---10-9-9|
E|--------------------------------------------|
let ring
e|----------------------------------------------|
B|----------------------------------------------|
G|----------------------------------------------|
D|-7--------9------9---9--------9--------7---7\-|
A|---9-7-7-----7-7---7----10-10---10-9-9---9----|
E|----------------------------------------------|
let ring

She gots to have ideas, yeah, and she gots to have style
e|--------------------------------------------|
B|--------------------------------------------|
G|--------------------------------------------|
D|7--7-7-7-7-7-7---------7----7-------9-------|
A|5--5-5-5-5-5-5---5-5-5----5---10-10---10-9-9|
E|--------------------------------------------|
let ring
e|----------------------------------------------|
B|----------------------------------------------|
G|----------------------------------------------|
D|-7--------9------9---9--------9--------7---7\-|
A|---9-7-7-----7-7---7----10-10---10-9-9---9----|
E|----------------------------------------------|
let ring

Bridge:guitar silent(bass only)

      Drop out of school and run away
e|------------------------------------------------------|
B|------------------------------------------------------|
G|------------------------------------------------------|
D|------------------------------------------------------|
A|------------------------------------------------------|
E|------------------------------------------------------|

     Quit your job, you've got a place to stay
e|------------------------------------------------------|
B|------------------------------------------------------|
G|------------------------------------------------------|
D|------------------------------------------------------|
A|------------------------------------------------------|
E|------------------------------------------------------|
     Pack your bags and hitch a ride
e|------------------------------------------------------|
B|------------------------------------------------------|
G|------------------------------------------------------|
D|------------------------------------------------------|
A|------------------------------------------------------|
E|------------------------------------------------------|
     Bremerton's a good place to reside
e|------------------------------------------------------|
B|------------------------------------------------------|
G|-------------------------------2-2-2-2-2-2-2-2-2-2-2-2|
D|-------------------------------2-2-2-2-2-2-2-2-2-2-2-2|
A|-------------------------------0-0-0-0-0-0-0-0-0-0-0-0|
E|------------------------------------------------------|
 PM                              |--------|

Chorus:
   Move to Bremerton,       we'll hang out
e|-3----3--3---3--3----3----3--3--3--3|
B|-3----3--3---3--3----3----3--3--3--3|
G|-4----4--4---4--4----4----4--4--4--4|
D|-5----5--5---5--5----5----5--5--5--5|
A|-5----5--5---5--5----5----5--5--5--5|
E|-3----3--3---3--3----3----3--3--3--3|

   Move to bremerton,     we'll go all out
e|-5----5--5---5--5----5----5--5--5--5|
B|-7----7--7---7--7----7----7--7--7--7|
G|-7----7--7---7--7----7----7--7--7--7|
D|-7----7--7---7--7----7----7--7--7--7|
A|-5----5--5---5--5----5----5--5--5--5|
E|------------------------------------|

   Move to bremerton, where you'll   be mine
e|-2----2--2---2--2----2----2--2---2--2---x-|
B|-3----3--3---3--3----3----3--3---3--3---x-|
G|-4----4--4---4--4----4----4--4---4--4---x-|
D|-4----4--4---4--4----4----4--4---4--4---x-|
A|-2----2--2---2--2----2----2--2---2--2---x-|
E|----------------------------------------x-|
                                          
e|-x----5--x-x--5--x-x---5--x-x-5|
B|-x----5--x-x--5--x-x---5--x-x-5|
G|-x----6--x-x--6--x-x---6--x-x-6|
D|-x----7--x-x--7--x-x---7--x-x-7|
A|-x----7--x-x--7--x-x---7--x-x-7|
E|-x----5--x-x--5--x-x---5--x-x-5|
        ^       ^        ^      ^          
   Move to bremerton, we'll hang out,
e|-3----3--3---3--3----3----3--3--3--3|
B|-3----3--3---3--3----3----3--3--3--3|
G|-4----4--4---4--4----4----4--4--4--4|
D|-5----5--5---5--5----5----5--5--5--5|
A|-5----5--5---5--5----5----5--5--5--5|
E|-3----3--3---3--3----3----3--3--3--3|

   Move to bremerton, we'll go all out
e|-5----5--5---5--5----5----5--5--5--5|
B|-7----7--7---7--7----7----7--7--7--7|
G|-7----7--7---7--7----7----7--7--7--7|
D|-7----7--7---7--7----7----7--7--7--7|
A|-5----5--5---5--5----5----5--5--5--5|
E|------------------------------------|

   Move to bremerton till the end     of time
e|-2----2--2---2--2----2----2--2---2--2---5|
B|-3----3--3---3--3----3----3--3---3--3---5|
G|-4----4--4---4--4----4----4--4---4--4---6|
D|-4----4--4---4--4----4----4--4---4--4---7|
A|-2----2--2---2--2----2----2--2---2--2---7|
E|----------------------------------------5|
                                          ^
e|-x-x---5--x-x--5--x-x---5--x-x-5|
B|-x-x---5--x-x--5--x-x---5--x-x-5|
G|-x-x---6--x-x--6--x-x---6--x-x-6|
D|-x-x---7--x-x--7--x-x---7--x-x-7|
A|-x-x---7--x-x--7--x-x---7--x-x-7|
E|-x-x---5--x-x--5--x-x---5--x-x-5|
         ^       ^        ^      ^ 

Extension:

                       Until the end of
e|-3----3--3---3--3----3----3--3--3--3|
B|-3----3--3---3--3----3----3--3--3--3|
G|-4----4--4---4--4----4----4--4--4--4|
D|-5----5--5---5--5----5----5--5--5--5|
A|-5----5--5---5--5----5----5--5--5--5|
E|-3----3--3---3--3----3----3--3--3--3|

   time
e|-5----5--5---5--5----5----5--5--5--5|
B|-7----7--7---7--7----7----7--7--7--7|
G|-7----7--7---7--7----7----7--7--7--7|
D|-7----7--7---7--7----7----7--7--7--7|
A|-5----5--5---5--5----5----5--5--5--5|
E|------------------------------------|
                       Until the end of
e|-2----2--2---2--2----2----2--2---2--2|
B|-3----3--3---3--3----3----3--3---3--3|
G|-4----4--4---4--4----4----4--4---4--4|
D|-4----4--4---4--4----4----4--4---4--4|
A|-2----2--2---2--2----2----2--2---2--2|
E|-------------------------------------|
   Time
e|5---5-5-5-5-5---5---5-5-5-5-5|
B|5---5-5-5-5-5---5---5-5-5-5-5|
G|6---6-6-6-6-6---6---6-6-6-6-6|
D|7---7-7-7-7-7---7---7-7-7-7-7|
A|7---7-7-7-7-7---7---7-7-7-7-7|
E|5---5-5-5-5-5---5---5-5-5-5-5|

Chorus:
   Move to Bremerton,       we'll hang out
e|-3----3--3---3--3----3----3--3--3--3|
B|-3----3--3---3--3----3----3--3--3--3|
G|-4----4--4---4--4----4----4--4--4--4|
D|-5----5--5---5--5----5----5--5--5--5|
A|-5----5--5---5--5----5----5--5--5--5|
E|-3----3--3---3--3----3----3--3--3--3|

   Move to bremerton,     we'll go all out
e|-5----5--5---5--5----5----5--5--5--5|
B|-7----7--7---7--7----7----7--7--7--7|
G|-7----7--7---7--7----7----7--7--7--7|
D|-7----7--7---7--7----7----7--7--7--7|
A|-5----5--5---5--5----5----5--5--5--5|
E|------------------------------------|

   Move to bremerton, where you'll   be mine
e|-2----2--2---2--2----2----2--2---2--2---x-|
B|-3----3--3---3--3----3----3--3---3--3---x-|
G|-4----4--4---4--4----4----4--4---4--4---x-|
D|-4----4--4---4--4----4----4--4---4--4---x-|
A|-2----2--2---2--2----2----2--2---2--2---x-|
E|----------------------------------------x-|
                                          
e|-x----5--x-x--5--x-x---5--x-x-5|
B|-x----5--x-x--5--x-x---5--x-x-5|
G|-x----6--x-x--6--x-x---6--x-x-6|
D|-x----7--x-x--7--x-x---7--x-x-7|
A|-x----7--x-x--7--x-x---7--x-x-7|
E|-x----5--x-x--5--x-x---5--x-x-5|
        ^       ^        ^      ^          
   Move to bremerton, we'll hang out,
e|-3----3--3---3--3----3----3--3--3--3|
B|-3----3--3---3--3----3----3--3--3--3|
G|-4----4--4---4--4----4----4--4--4--4|
D|-5----5--5---5--5----5----5--5--5--5|
A|-5----5--5---5--5----5----5--5--5--5|
E|-3----3--3---3--3----3----3--3--3--3|

   Move to bremerton, we'll go all out
e|-5----5--5---5--5----5----5--5--5--5|
B|-7----7--7---7--7----7----7--7--7--7|
G|-7----7--7---7--7----7----7--7--7--7|
D|-7----7--7---7--7----7----7--7--7--7|
A|-5----5--5---5--5----5----5--5--5--5|
E|------------------------------------|

   Move to bremerton till the end     of time
e|-2----2--2---2--2----2----2--2---2--2---5|
B|-3----3--3---3--3----3----3--3---3--3---5|
G|-4----4--4---4--4----4----4--4---4--4---6|
D|-4----4--4---4--4----4----4--4---4--4---7|
A|-2----2--2---2--2----2----2--2---2--2---7|
E|----------------------------------------5|
                                          ^
e|-x-x---5--x-x--5--x-x---5--x-x-5|
B|-x-x---5--x-x--5--x-x---5--x-x-5|
G|-x-x---6--x-x--6--x-x---6--x-x-6|
D|-x-x---7--x-x--7--x-x---7--x-x-7|
A|-x-x---7--x-x--7--x-x---7--x-x-7|
E|-x-x---5--x-x--5--x-x---5--x-x-5|
         ^       ^        ^      ^ 
Ending chord:(tonic)
e|-5----|
B|-7----|
G|-7----|
D|-7----|
A|-5----|
E|------|



| ^  accent this note
| /  slide up
| \  slide down
| h  hammer-on
| p  pull-off
| ~  vibrato
| *  harmonic
| x  rhythm strum
Comments