Mxpx - More Everything Chords & Tabs

 

More Everything Chords & Tabs

Mxpx Chords & Tabs

Version: 1 Type: Tab 0 ratings
1 star 2 stars 3 stars 4 stars 5 stars
comments

More Everything Tab

   
 "More Everything" by Mxpx

Tabbed By: Dylan Devoe (dylandevoe@hotmail.com)

Intro:
e|--------------------------------------|
B|--------------------------------------|
G|--------------------------------------|
D|-7----2----4----2----7----2----4----2-|
A|-7----2----4----2----7----2----4----2-|
E|-5----0----2----0----5----0----2----0-|

e|-----------------------------|
B|-----------------------------|
G|-6-6-6-4-2-4-2-2-2-2-4-6-7-6-|
D|-----------------------------| x4 
A|-----------------------------|
E|-----------------------------|

Verse:
e|----------------------|
B|----------------------|
G|-7-~------------------|
D|-7-~-7----2----4----2-| x2
A|-5-~-7----2----4----2-|
E|-----5----0----2----0-| ...

e|-------------------------------------------------|
B|-------------------------------------------------|
G|-7-7-7-7-9-9-9-9-----------------7-7-7-7-7-7-7-7-|
D|-7-7-7-7-9-9-9-9-7-7-7-7-4-4-4-4-7-7-7-7-7-7-7-7-|
A|-5-5-5-5-7-7-7-7-7-7-7-7-4-4-4-4-5-5-5-5-5-5-5-5-|
E|-----------------5-5-5-5-2-2-2-2-----------------|
  (----------Palm-Muted-----------)

Chorus:
e|---------------------|
B|---------------------|
G|-----------------7-9-|
D|-7-~-2-~---------7-9-| (Notes Can Be Played As Power Chords)
A|-7-~-2-~-------4-5-7-|
E|-5-~-0-~-2-4-5-------|

Fill:
e|--------------------------------------|
B|--------------------------------------|
G|--------------------------------------|
D|-7----2----4----2----7----2----4----2-|
A|-7----2----4----2----7----2----4----2-|
E|-5----0----2----0----5----0----2----0-|

~Repeat Verse~

2nd Chorus:
e|-------------------------------|
B|-------------------------------|
G|-----------------7-9-----------|
D|-7-~-2-~---------7-9-7-2-2-2-2-| x2
A|-7-~-2-~-------4-5-7-7-2-2-2-2-|
E|-5-~-0-~-2-4-5-------5-0-0-0-0-|
[ Tab from: http://www.guitartabs.cc/tabs/m/mxpx/more_everything_tab.html ]
Bridge:
e|-------------------------------------------------------------------------|
B|-------------------------------------------------------------------------|
G|---------------------------------6-6-6-6-----------------7-7-7-7-9-9-9-9-|
D|-7-7-7-7-7-7-7-7-7-7-7-7-7-7-7-7-6-6-6-6-4-4-4-4-9-9-9-9-7-7-7-7-9-9-9-9-|
A|-7-7-7-7-7-7-7-7-7-7-7-7-7-7-7-7-4-4-4-4-4-4-4-4-9-9-9-9-5-5-5-5-7-7-7-7-|
E|-5-5-5-5-5-5-5-5-5-5-5-5-5-5-5-5---------2-2-2-2-7-7-7-7-----------------|

e|-------------------------------|
B|-------------------------------|
G|---------7-9-------------6-7-9-|
D|-4-6-7-9-7-9-----4-6-7-9-6-7-9-|
A|-4-6-7-9-5-7-----4-6-7-9-4-5-7-|
E|-2-4-5-7---------2-4-5-7-------|

Fill: x2
e|--------------------------------------|
B|--------------------------------------|
G|--------------------------------------|
D|-7----2----4----2----7----2----4----2-|
A|-7----2----4----2----7----2----4----2-|
E|-5----0----2----0----5----0----2----0-|

~Reapeat Chorus~

Intro Out

Lyrics:

I'm taking off,
Heading out of this town
Get this plane off the ground,
And safely set it down

We had our first fight late last night,
I watched her walk right out the door,
She said she needed something more:

More laughter, more tears,
More praises, more cheers,
More everything, in all the ways you are

I'm taking off,
Mabey I'll bum a ride
I'll turn with the tide,
And spend my nights outside

The chance I had just passed me by,
Cause now my girls began to cry,
She said she need something more:

More laughter, more tears,
More praises, more cheers,
More kissing in the car,
More staring at the stars,
More colors outside the lines,
More undivided time,
More everything, in all the ways you are

More everything in every way,
Every second of the day
And every thought that's played out in my mind
You're everything that I've been trying to find
You're everything that I've been trying.....to find

More laughter, more tears,
More praises, more cheers,
More kissing in the car,
More staring at the stars,
More colors outside the lines,
More undivided time,
More everything, in all the ways you are
More everything, in all the ways you are
Comments