Mxpx - Misplaced Memories Chords & Tabs

 

Misplaced Memories Chords & Tabs

Mxpx Chords & Tabs

Version: 1 Type: Tab 0 ratings
1 star 2 stars 3 stars 4 stars 5 stars
comments

Misplaced Memories Tab

   
MxPx 
Misplaced Memories
Tabbed by Vince a.k.a.

this song switches a lot from swing style to straight rock beat so 
you'll have to listen closely to get the exact rhythm of everything
+   =   Guitar1
*   =   Guitar2
... =   Palm Mute
~~~ =   Let Ring

Intro 00:00-00:13++++ Triplets/Sixtuplets +++++++++++++++++
e|------------------------------------------------------| +
B|------------------------------------------------------| +
G|----------------------------9-9-9-9-9-9---------------| +
D|-9-9-9-9-9-9--5-5-5-5-5-5---9-9-9-9-9-9--5-5-5-5-5-5--| ++++Guitar1
A|-9-9-9-9-9-9--5-5-5-5-5-5---7-7-7-7-7-7--5-5-5-5-5-5--| +
E|-7-7-7-7-7-7--3-3-3-3-3-3----------------3-3-3-3-3-3--| +
+++++++++++++++++++++++++++++++++++++++++++++++++++++++++++
***********************************************************
e|------------------------------------------------------| * 
B|------------------------------------------------------| *
G|--------------121212121212--9-9-9-9-9-9--121212121212-| *
D|-9-9-9-9-9-9--x-x-x-x-x-x---x-x-x-x-x-x--x-x-x-x-x-x--| ****Guitar2
A|-x-x-x-x-x-x--101010101010--7-7-7-7-7-7--101010101010-| *
E|-7-7-7-7-7-7------------------------------------------| *
***********************************************************
+++++++++++++++++++++++++++++++++++++++++++++++++++++++++++
e|------------------------------------------------------| +
B|------------------------------------------------------| +
G|----------------------------7-----8------9-----10-----| +
D|-9-9-9-9-9-9--5-5-5-5-5-5---x-----x------x-----x------| ++++Guitar1
A|-9-9-9-9-9-9--5-5-5-5-5-5---5-----6------7-----8------| +
E|-7-7-7-7-7-7--3-3-3-3-3-3-----------------------------| +
+++++++++++++++++++++++++++++++++++++++++++++++++++++++++++
***********************************************************
e|------------------------------------------------------| *
B|------------------------------------------------------| *
G|--------------121212121212--7-----8------9-----10-----| *
D|-9-9-9-9-9-9--x-x-x-x-x-x---x-----x------x-----x------| ****Guitar2
A|-x-x-x-x-x-x--101010101010--5-----6------7-----8------| *
E|-7-7-7-7-7-7------------------------------------------| *
***********************************************************
Do the Intro TWICE(2X) then play this:
Verse 00:14-00:38 +++++++++++++++++++++++++++++++++++++
e|--------------------------------------------------| +
B|--------------------------------------------------| +
G|--------------------------------------------------| +
D|-6-66666666666666----------------4444444444444444-| +
A|-4-4444444444444444444444444444442222222222222222-| +
E|-----------------2222222222222222-----------------| +
     ..............................................   +
e|----------------------------------|                 +
B|----------------------------------|                 ++++Guitar1
G|----------------------------------|                 +
D|-7777777777777777-----------------|                 +
A|-55555555555555557777777777777777-|                 +
E|-----------------0000000000000000-|                 +
   ................................                   + 
+++++++++++++++++++++++++++++++++++++++++++++++++++++++
Play the Verse twice(2X) also then play this:


[ Tab from: http://www.guitartabs.cc/tabs/m/mxpx/misplaced_memories_tab.html ]
Chorus 00:39-01:04 +*+*+*+*+*+**+*+*+*+*+*+*+*+*+*+*+*+*+*+*+*+*+*+*+
e|-----------------------------------------------------------------|*
B|---------------------------------8888888888888888----------------|+
G|-4444444444444444----------------9999999999999999----------------|* 
D|-4444444444444444555555555555555599999999999999994444444444444444|+
A|-2222222222222222555555555555555577777777777777774444444444444444|* 
E|-----------------333333333333333300000000000000002222222222222222|+
                                                                    *
e|-------------------------------------------------|                +
B|---------------------------------8-8-8-8-8-8-8-8-|                *
G|-4-4-4-4-4-4-4-4-----------------9-9-9-9-9-9-9-9-|                +
D|-4-4-4-4-4-4-4-4-5-5-5-5-5-5-5-5-9-9-9-9-9-9-9-9-|   +*Guitars1&2*+
A|-2-2-2-2-2-2-2-2-5-5-5-5-5-5-5-5-7-7-7-7-7-7-7-7-|                +
E|-----------------3-3-3-3-3-3-3-3-0-0-0-0-0-0-0-0-|                *
                                                                    +
e|----------------------------------|                               *
B|----------------------------------|                               +
G|----------------------------7--6--|                               *
D|-4--4-4--4-4--4-4--4--4--2--7--6--|                               +
A|-4--4-4--4-4--4-4--4--4--2--5--4--|                               *
E|-2--2-2--2-2--2-2--2--2--0--------|                               +
+*+*+*+*+*+*+*+*+*+*+*+*+*+*+*+*+*+*+*++*+*+*+*+*+*+*+*+*+*+*+*+*+*+*          
Then play the Intro again(2X) 01:04-01:17
Then play the Verse      (2X) 01:18-01:43
Then play this:
Chorus2 01:43-02:21 *+*+*+*+*+**+*+*+*+*+*+*+*+*+*+*+*+*+*+*+*+*+*+*+
e|-----------------------------------------------------------------|*
B|---------------------------------888888888--8--------------------|+
G|-4444444444444444----------------99999999-9--9--9----------------|* 
D|-4444444444444444555555555555555599999999--9--9--4444444444444444|+
A|-2222222222222222555555555555555577777777------7-4444444444444444|* 
E|-----------------333333333333333300000000--------2222222222222222|+
                                                                    *
e|-------------------------------------------------|                +
B|---------------------------------8-8-8-8-8-8-8-8-|                *
G|-4-4-4-4-4-4-4-4-----------------9-9-9-9-9-9-9-9-|                +
D|-4-4-4-4-4-4-4-4-5-5-5-5-5-5-5-5-9-9-9-9-9-9-9-9-|                *
A|-2-2-2-2-2-2-2-2-5-5-5-5-5-5-5-5-7-7-7-7-7-7-7-7-|                +
E|-----------------3-3-3-3-3-3-3-3-0-0-0-0-0-0-0-0-|                *
                                                                    +
e|----------------------------------|                               *
B|----------------------------------|                  +*Guitars1&2*+
G|----------------------------7--6--|                               *
D|-4--4-4--4-4--4-4--4--4--2--7--6--|                               +
A|-4--4-4--4-4--4-4--4--4--2--5--4--|                               *
E|-2--2-2--2-2--2-2--2--2--0--------|                               +
                                                                    *
e|--------------------------------------------------|               +
B|----------------------------------8---8---8---8---|               *
G|--4---4---4---4-------------------9---9---9---9---|               +
D|--4---4---4---4---5---5---5---5---9---9---9---9---|               *
A|--2---2---2---2---5---5---5---5---7---7---7---7---|               +
E|------------------3---3---3---3---0---0---0---0---|               *
                                                                    +
e|----------------------------------|                               *
B|----------------------------------|                               +
G|----------------------------7--6--|                               *
D|-4--4-4--4-4--4-4--4--4--2--7--6--|                               +
A|-4--4-4--4-4--4-4--4--4--2--5--4--|                               *
E|-2--2-2--2-2--2-2--2--2--0--------|                               +
*+*+*+*+*+*+*+*+*+*+*+*+*+*+*+*+*+*+*+*+*+*+*+*+*+*+*+*+*+*+*+*+*+*+*


THEN.....you play this:
Interlude 02:21-02:45 *+*+* Swing Style +*+*+*+**+*+*+*+*+*+*+*+*+*
e|------------------------------------------|                     +
B|------------------------------------------|                     *
G|------------------------------------------|                     +
D|-5--5-5--5-5--5-5--5-5--5-5--5-5--5-5--5--|                     *
A|-5--5-5--5-5--5-5--5-5--5-5--5-5--5-5--5--|                     + 
E|-3--3-3--3-3--3-3--3-3--3-3--3-3--3-3--3--|                     *
                                                                  +
e|------------------------------------------|                     * 
B|------------------------------------------|                     +  
G|-7--7-7--7-7--7-7--7----------------------|                     *
D|-7--7-7--7-7--7-7--7-7--7-7--7-7--7-7--7--|                     +
A|-5--5-5--5-5--5-5--5-7--7-7--7-7--7-7--7--|                     *
E|---------------------5--5-5--5-5--5-5--5--|                     +
                                                      +*Guitars1&2*+
e|------------------------------------------|                     +
B|------------------------------------------|                     *
G|-7--7-7--7-7--7-7--7----------------------|                     +
D|-7--7-7--7-7--7-7--7-7-------8------------|                     * 
A|-5--5-5--5-5--5-5--5-7-------8------------|                     +
E|---------------------5-------6------------|                     *
     "BASS SOLO" 02:45-02:56                                      + 
e|-----------------------------------------------------------|    *
B|--------(BASS-PART)----------------------------------------|    +
G|-4---------------------------------4--4--4--4--4--4--4--4--|    *
D|-4(0-2-3-2-0-2-0-------------------4--4--4--4--4--4--4--4--|    +
A|-2---------------4-5-4-5-4-2-4-5)--2--2--2--2--2--2--2--2--|    *
E|-----------------------------------------------------------|    +
                                                                  *
e|-----------------------------------------------------------|    +
B|-----------------------------------------------------------|    *
G|-4--4--4--4--4--4--4--4--4--4--4--4-7-------9---7----------|    +
D|-4--4--4--4--4--4--4--4--4--4--4--4-7---7---9---7----------|    * 
A|-2--2--2--2--2--2--2--2--2--2--2--2-5---7---7---5----------|    +
E|----------------------------------------5------------------|    *
+*+*+*+*+*+*+*+*+*+*+*+*+*+*+*+*+*+*+*+*+*+*+*+*+*+*+*+*+*+*+*+*+*+ 
Then you finally end with this:                                   *
OUTRO 02:57-03:33                                                 +
e|-------------------------------------------------|              * 
B|---------------------------------8-8-8-8-8-8-8-8-|              +
G|-4-4-4-4-4-4-4-4-----------------9-9-9-9-9-9-9-9-|              *   
D|-4-4-4-4-4-4-4-4-5-5-5-5-5-5-5-5-9-9-9-9-9-9-9-9-|              +
A|-2-2-2-2-2-2-2-2-5-5-5-5-5-5-5-5-7-7-7-7-7-7-7-7-|              *
E|-----------------3-3-3-3-3-3-3-3-0-0-0-0-0-0-0-0-|              +
                                                                  *
e|----------------------------------|                +*Guitars1&2*+
B|----------------------------------|                             * 
G|----------------------------7--6--|                             +
D|-4--4-4--4-4--4-4--4--4--2--7--6--|                             * 
A|-4--4-4--4-4--4-4--4--4--2--5--4--|                             +
E|-2--2-2--2-2--2-2--2--2--0--------|                             * 
  (Tripelets/Sixtuplets)                                          +
e|--------------------------------------------------|             *
B|--------------------------------------------------|             +
G|-444444444444444444444444-------------------------|             * 
D|-444444444444444444444444555555555555555555555555-|             +
A|-222222222222222222222222555555555555555555555555-|             *  
E|-------------------------333333333333333333333333-|             +
                                                                  *
e|---------------------------------------------------------------|+
B|-888888888888888888888888--------------------------------------|*
G|-999999999999999999999999----------------------7---2---4~~~~~~-|+  
D|-999999999999999999999999444444444444-4---2----7---2---4~~~~~~-|* 
A|-777777777777777777777777444444444444-4---2----5---4---2~~~~~~-|+  
E|-000000000000000000000000222222222222-2---0--------------------|*
+*+*+*+*+*+*+*+*+*+*+*+*+*+*+*+*+*+*+*+*+*+*+*+*+*+*+*+*+*+*+*+*+*+
Comments