Mxpx - Middlename Chords & Tabs

 

Middlename Chords & Tabs

Mxpx Chords & Tabs

Version: 1 Type: Tab 0 ratings
1 star 2 stars 3 stars 4 stars 5 stars
comments

Middlename Tab

Song: Middle Name
Artist: MxPx
Album: Life in General
Record Company: Tooth And Nail Records, A&M Records
Tabbed by: Homie "G"
Tunning: EADGBe

(figure Rhythm out your-self)

Intro Starter:

e---------
B---------
G---------
D-7-7777-- 2x
A-7-7777--
E-5-5555--
    ****

Intro:
e-------------------------------------------------
B-------------------------------------------------
G----------6-6666---------------4444444-777777----
D--7-7777--6-6666--5-5555-44444-4444444-777777---- 2x
A--7-7777--4-4444--5-5555-44444-2222222-555555----
E--5-5555----------3-3333-22222-------------------
     ****    ****    ****

Chorus:                                       
e-------------------------------------------------
B-------------------------------------------------
G-------66666-----------------6-7~----------------
D-77777-66666-55555-44444---7-6-7~----------------
A-77777-44444-55555-44444---7-4-5~----------------
E-55555-------33333-22222---5---------------------

  (AT THE SHOW!)
e---------------------------
B---------------------------
G----------------6----------
D--------------7-6-555555--- 4x
A--------------7-4-555555---
E--------------5---333333---
[ Tab from: http://www.guitartabs.cc/tabs/m/mxpx/middlename_tab.html ]
Verse:
e-------------------------------------
B-------------------------------------
G--------999999--------777777-999999--
D-777777-999999-555555-777777-999999-- 2x
A-777777-777777-555555-555555-777777--
E-555555--------333333----------------

Then you play:
Intro
Chorus
Verse

Solo:
e---------------------------------------------------------------------
B---5----------5----------5-------666-5-----5---------5-----------5---
G-----6------6---6------6---6--7~-777-6-------6-----6---6-------6---6-
D-7-----7-6~-------6-5~--------7~-777-7--7~-----7-6~-------6-5~-------
A------------------------------5~-555---------------------------------
E---------------------------------------------------------------------

Solo Continued:
e------------------------------------
B------------------------------------
G--------444444-7xxxxx---------------
D-444444-444444-7xxxxx---------------
A-444444-222222-5xxxxx---------------
E-222222-----------------------------

Then you play:
Chorus

Outro:
e------------------------------------------
B------------------------------------------
G--------44~---77~-------------------------
D-444444-44~---77~--22-7~-----7------------
A-444444-22~---55~--22-7~-----7------------
E-222222------------00-5~-----5------------

Thats it! Ur Done! I Think it's 100% right! but i dunno, rate it!
Comments