Mxpx - Let It Happen Chords & Tabs

 

Let It Happen Chords & Tabs

Mxpx Chords & Tabs

Version: 1 Type: Bass Tab 0 ratings
1 star 2 stars 3 stars 4 stars 5 stars
comments

Let It Happen Bass Tab

***MxPx***
Let it Happen
tabbed by ally
standard tuning (EADG) ~ = play a bunch of times
intro:
g:----------------------------------------------------------------------------------
d:9~8----------------8-8-8-8-11-11-11-11----9-9-------9-9---------------------------
a:---9-9-9-9-9-9-9-9---------------------7~-----11-11-----9~-14-12-11---------------
e:----------------------------------------------------------------------------------

verse:
g:----------------------------------------------------------------------------------
d:----------------------------------------------------------------------------------
a:-2-2-2-2-2-2-2-2---------------------------------4-4-4-4--------------------------
e:-----------------2-2-2-2-2-2-2-2-0-0-0-0-0-0-0-0---------2-2-2-2------------------

chorus:
g:----------------------------------------------------------------------------------
d:----------------------------------------------------------------------------------
a:----------------4-4-4-4-----------------------------------------------------------
e:0-0-0-0-0-0-0-0---------2-2-2-2---------------------------------------------------
[ Tab from: http://www.guitartabs.cc/tabs/m/mxpx/let_it_happen_btab.html ]
solo:                         then:                         then:
g:--8----8-  a bunch -------   g:--8----8-------------   g:-------------------------
d:99---99----  of times ----   d:66---66- a bunch ----   d:--9----9- a bunch ------- 
a:--------------------------   a:-------- of times----   a:77---77--- of times -----
e:--------------------------   e:---------------------   e:-------------------------

then:
g:-------------------------------11-11-11-11----------------------------------------
d:--------8-8-8-8-9-9-9-9-11-11-11-11-----------------------------------------------
a:9-9-9-9---------------------------------------------------------------------------
e:----------------------------------------------------------------------------------

there's a certain rhythm in the first 3 parts so listen 2 the song 2 get that. im not sure that the last bit is exactly right but it's something close to that. 

outro consists of the solo and it ends on a B (d:-9-)

structure:
intro x2
verse x2
chorus x2
verse x2
chorus x2 
intro x1
solo x2 
intro x1
verse x2
chorus x2 
outro

if u have any corrections or questions or stuff like that send it all to me agilbert41@aol
or punk_chick4182@hotmail.com although i won't check hotmail as often as aol (stupid cpu's!)
cheers xox ÅLL  hÀÏL  þÚñK  & Ît‘§ m!nÏØN§!!!!!!!!!! ©
Comments