Mxpx - Is The Answer In The Question Chords & Tabs

 

Is The Answer In The Question Chords & Tabs

Mxpx Chords & Tabs

Version: 1 Type: Tab 0 ratings
1 star 2 stars 3 stars 4 stars 5 stars
comments

Is The Answer In The Question Tab

   
===================================================================
              Is the Answer in the Question?  -  MxPx
===================================================================

Tabbed by: punkROCKSerfer
Email: BdRlgnNOFXguy32@AOL.com

~= let ring
*= palm mute
X= pick scratch
/ \= slide

Intro
e|---------------------|
B|---------------------|
G|---------7---------5-|
D|-555555557-555555555-|  X2
A|-555555555-555555553-|
E|-33333333--33333333--|

Verse 1  (Wonder and complete....)
e|-----------------------------------------------------------------|
B|-----------------------------------------------------------------|
G|-----7-7-9-9-----5-5-5-5---------5-----7-7-9-9-----5-5-5-5-------|
D|-5-5-7-7-9-9-9-9-5-5-5-5-555555555-5-5-7-7-9-9-9-9-5-5-5-5-5~-5~-|
A|-5-5-5-5-7-7-9-9-3-3-3-3-555555553-5-5-5-5-7-7-9-9-3-3-3-3-5~-5~-|
E|-3-3---------7-7---------33333333--3-3---------7-7---------3~-3~-|

Chorus  (So where do we go....)
e|---------------------------|    |---------------|
B|---------------------------|    |---------------|
G|-55555555555555------------|    |-5555555555555-|
D|-55555555555555-55-44-2222-| X2 |-5555555555555-|
A|-33333333333333-55-44-2222-|    |-3333333333333-|
E|----------------33-22-0000-|    |---------------|

Post-Chorus  (Da da da da....)
e|------------------------------------|
B|------------------------------------|
G|----77-55-55----77-5~-5~----------5-|
D|-55-77-55-55-55-77-5~-5~--555555555-|
A|-55-55-33-33-55-55-3~-3~--555555553-|
E|-33----------33-----------33333333--|
[ Tab from: http://www.guitartabs.cc/tabs/m/mxpx/is_the_answer_in_the_question_tab.html ]
Verse 2  (Love, hate, life....)
e|----------------------------------------------------------------|
B|----------------------------------------------------------------|
G|-----7-7-9-9-----5-5-5-5---------5-----7-7-9-9-----5-5-5-5------|
D|-5-5-7-7-9-9-9-9-5-5-5-5-555555555-5-5-7-7-9-9-9-9-5-5-5-5-5~-5-|
A|-5-5-5-5-7-7-9-9-3-3-3-3-555555553-5-5-5-5-7-7-9-9-3-3-3-3-5~-5-|
E|-3-3---------7-7---------33333333--3-3---------7-7---------3~-3-|

Chorus  (So where do we go....)
e|-------------------------------------------------------|
B|-------------------------------------------------------|
G|-55555555555555----------5555555555----------555555555-|
D|-55555555555555-55-44-2~-5555555555-55-44-22-555555555-|
A|-33333333333333-55-44-2~-3333333333-55-44-22-333333333-|
E|----------------33-22-0~------------33-22-00-----------|
                            *********

Solo - Guitar 2
e|---------------------------------------------------|
B|---------------------------------------------------|
G|-55555555555555------------555555555555------------|
D|-55555555555555-55-44-2222-555555555555-55-44---2~-|
A|-33333333333333-55-44-2222-333333333333-55-44---2~-|
E|----------------33-22-0000--------------33-22---0~-|

Solo - Guitar 1
e|----------------------------------------------------------|
B|-5-5-8-10-12-10-8-5-4-4-8-10-12-10-8-4-3-3-8-10-12-10-8-3-|
G|----------------------------------------------------------|
D|----------------------------------------------------------|
A|----------------------------------------------------------|
E|----------------------------------------------------------|

Solo con't. - Guitar 1
e|---------------------|
B|-5-5-8-10-12-10-8-10-|
G|---------------------|
D|---------------------| X2  
A|---------------------|
E|---------------------|

Chorus
e|-------------------------------|
B|-------------------------------|
G|-5555555555----------555555555-|
D|-5555555555-55-44-22-555555555-|
A|-3333333333-55-44-22-333333333-|
E|------------33-22-00-----------|
    *********

Outro  (Da da da da....)
e|-----------------------------|
B|-----------------------------|
G|----77-55-55----77-5~-5~-----|
D|-55-77-55-55-55-77-5~-5~--5~-|
A|-55-55-33-33-55-55-3~-3~--5~-|
E|-33----------33-----------3~-|
Comments