Mxpx - Invitation To Understanding Acoustic Chords & Tabs

 

Invitation To Understanding Acoustic Chords & Tabs

Mxpx Chords & Tabs

Version: 1 Type: Tab 0 ratings
1 star 2 stars 3 stars 4 stars 5 stars
comments

Invitation To Understanding Acoustic Tab

Song: Invitation To Understanding (acoustic)
Artist: MxPx
Album: AC/EP

Standard Tuning

Intro
E |------------0-----------------0-----------------0-----------------0-------------|
B |------3--------3--------3--------3--------3--------3--------3--------3----------|
G |---------2--------2--------2--------2--------2--------2--------2--------2-------|
D |---0----------------------------------------------------------------------------|
A |--------------------------------------------------------------------------------|
E |---------------------2-----------------3-----------------3----------------------|

E |-----------------------------------------------------------------------------------|
B |-----------3--2------------------3--2----------------------------------------------|
G |--------4--------4------------2--------2--------------------------------------0----|
D |-----4--------------4------2--------------2-----------2-----0-----4-----0----------|
A |--2---------------------0----------------------------------------------------------|
E |---------------------------------------------------3-----3-----3-----3-----3-------|

Verse1
E |----------------------------------------------------------------------------|
B |--3----------3-----------------------3--2------------------3--2-------------|
G |--2----------2--------------------4--------4------------2--------2----------|
D |--0----------0-----------------4--------------4------2--------------2-------|
A |----------------------------2--------------------0--------------------------|
E |-----2----3-----------------------------------------------------------------|

E |--------------------------------------------|
B |--------------------------------------------|
G |------------------------------0-------------|
D |------2-----0-----4-----2-------------------|
A |--------------------------------------------|
E |---3-----3-----3-----3-----3----------------|


E |------------0-----------------0-----------------0-----------------------|
B |------3--------3--------3--------3--------3--------3---------3----------|
G |---------2--------2--------2--------2--------2--------2------2----------|
D |---0---------------------------------------------------------0----------|
A |------------------------------------------------------------------------|
E |---------------------2-----------------3--------------------------------|

E |----------------------------------------------------------------------------------|
B |-----------3--2-------------------3--2--------------------------------------------|
G |--------4--------4-------------2--------2-----------------------------------------|
D |-----4--------------4-------2--------------2------------2-----0-----4-----2-----0-|
A |--2----------------------0--------------------------------------------------------|
E |-----------------------------------------------------3-----3-----3-----3-----3----|

Chorus1   (strum chords)
E |--------------3------2------------------------------------------------------------|
B |--3-----3-----3------3------------3-----3-----------------------------------------|
G |--4-----2------------2------------4-----2-----------------------------------0-----|
D |--4-----2-------------------------4-----2-----------2-----0-----4-----2-----------|
A |--2-----0-----2-------------------2-----0-----------------------------------------|
E |--------------3----------------------------------3-----3-----3-----3-----3--------|

[ Tab from: http://www.guitartabs.cc/tabs/m/mxpx/invitation_to_understanding_acoustic_tab.html ]
Verse2
E |------------0----------------0-----------------0---------------------------------|
B |------3-------3--------3--------3--------3--------3--------3---------------------|
G |---------2-------2--------2--------2--------2--------2-----2---------------------|
D |---0-------------------------------------------------------0---------------------|
A |---------------------------------------------------------------------------------|
E |--------------------2-----------------3------------------------------------------|
E |---------------------------------------------------------------------------------|
B |-----------3--2--------------------3--2------------------------------------------|
G |--------4--------4--------------2--------2----------------------------------0----|
D |-----4--------------4--------2--------------2----------2----0----4----0----------|
A |--2-----------------------0------------------------------------------------------|
E |---------------------------------------------------3-----3----3----3----3--------|

E |------------0------------------0-----------------0---------------------|
B |------3--------3---------3--------3--------3--------3-------3----------|
G |---------2--------2---------2--------2--------2--------2----2----------|
D |---0--------------------------------------------------------0----------|
A |-----------------------------------------------------------------------|
E |---------------------2------------------3------------------------------|

E |---------------------------------------------------------------------------------|
B |-----------3--2-------------------3--2-------------------------------------------|
G |--------4--------4-------------2--------2----------------------------------------|
D |-----4--------------4-------2--------------2---------2-----0-----4-----0-----0---|
A |--2----------------------0-------------------------------------------------------|
E |--------------------------------------------------3-----3-----3-----3-----3------|

Chorus2 strum chords
E |--------------3------2-------------------------------------------------------|
B |--3-----3-----3------3--------3-----3----------------------------------------|
G |--4-----2-----0------2--------4-----2----------------------------------------|
D |--4-----2-----0---------------4-----2-----------2-----0-----4-----2-----0----|
A |--2-----0-----2---------------2-----0----------------------------------------|
E |--------------3------------------------------3-----3-----3-----3-----3-------| x2

Bridge  strum chords
E |----------3-------2-----------------------|
B |----------3-------3--------3--------------|
G |----------0-------2--------2--------------|
D |--2-------0----------------2--------------|
A |--2-------2----------------0--------------|
E |--0-------3-------------------------------| x2


Chorus3                                                Strum Chords
E |------------------------------------------------2---------------------------------------|
B |-----------3--------------3---------------3-----3------3----3---------------------------|
G |--------4--------------2---------------0--------2------4----2---------------------------|
D |-----4--------------2---------------0------------------4----2------2-----0-----4-----0--|
A |--2--------------0-------------------------------------2----0---------------------------|
E |---------------------------------3------------------------------3-----3-----3-----3-----|

  Strum Chords			Strum Once
E |--------------3------2-------------------------------------------------------------|
B |--3-----3-----3------3--------------3-----3----------------------------------------|
G |--4-----2------------2--------------4-----2----------------------------------------|
D |--4-----2---------------------------4-----2------------2-----0-----4-----2-----0---|
A |--2-----0-----2---------------------2-----0----------------------------------------|
E |--------------3-------------------------------------3-----3-----3-----3-----3------|

E |----------------------------------------------|
B |----------------------------------------3-----|
G |----------------------------------------2-----|
D |-----2-----0-----5-----4-----2----------0-----|
A |----------------------------------------0-----|
E |--3-----3-----3-----3-----3-------------------|
Comments