Mxpx - Inches From Life Chords & Tabs

 

Inches From Life Chords & Tabs

Mxpx Chords & Tabs

Version: 2 Type: Bass Tab 0 ratings
1 star 2 stars 3 stars 4 stars 5 stars
comments

Inches From Life Bass Tab

Song: Inches From Life
Artist: MxPx

tabbed by: intense@westol.com

Intro:
----------------------------------------------------------
----------------------------------------------------------
-----------------3-3-3-3-3-3-3-3-4-4-4-4-4-4-4------------
-1-1-1-1-1-1-1-1-------------------------------6----4---3-

Verse:
---------------------------------------------------------------
---------------------------------------------------------------
-----------------3-3-3-3-3-3-3-4-4-4-4-4-4-4-4-----------------
-1-1-1-1-1-1-1-1-------------------------------6-6-6-6-6-6-6-6-

Prechorus:
--------------------------------------------------------------
--------------------------------------------------------------
-------3-3---------4-4--------3-3---------4-4-4-4-------------
-1-1---------4-4--------1-1---------4-4-----------1-1-1-1-1-1-
[ Tab from: http://www.guitartabs.cc/tabs/m/mxpx/inches_from_life_btab_ver_2.html ]
-------------------------------------------------------------
-------------------------------------------------------------
-3-3-3-3-3-3-------------4-4-4-4-4-4-------------3-3-3-3-3-3-
-------------4-4-4-4-4-4-------------1-1-1-1-1-1-------------

-------------------------
-------------------------
-------------4-4-4-4-4-4-
-4-4-4-4-4-4-------------

Chorus:
-------------------------------------------------
-------------------------------------------------
-------------3-3-3-3-3-3-------------4-4-4-4-4-4-
-4-4-4-4-4-4-------------1-1-1-1-1-1-------------

Pre 2nd verse:
-------------------------------------------------------------------
-------------------------------------------------------------------
-------------------------------------------------------------------
-1-1-1-1-1-1-1-1-4-1-1-1-1-1-1-1-1-6-6-4-4-1-1-1-1-1-1-1-1-6-6-4-4-

After 2nd chorus:
-----------------------------------------------------------------
-----------------------------------------------------------------
-----------------------------------------------------------------
-1-1-1-1-1-1-1-1-4-3-1-1-1-1-1-1-1-1-4-4-4-1-1-1-1-1-1-1-1-4-3-1-
Comments