Mxpx - Im Ok Youre Ok Chords & Tabs

 

Im Ok Youre Ok Chords & Tabs

Mxpx Chords & Tabs

Version: 2 Type: Tab 0 ratings
1 star 2 stars 3 stars 4 stars 5 stars
comments

Im Ok Youre Ok Tab

   
-------------------------------------------------------------------
			     I'm Ok You're Ok - MXPX
-------------------------------------------------------------------
Tabbed by:NOfxMIke	
Email:someone028@excite.com
Album: Slowly Going the Way of the Buffalo
Tuning:standard
Intro: 

                        sustained note
                        (.............)
 e------------------------------------|
 B------------------------------------|
 G--5-5---5-5-5--5--5---3-------------|
 D--5-5---5-5-5--5--5---3-------------|
 A--3-3---3-3-3--3--3---1-0-1-0-1-0-1-|  
 E------------------------------------|
 PM|---|  . |--| .  .    

 e------------------------------------|
 B------------------------------------|
 G--5-5---5-5-5--5--5---3-------------|
 D--5-5---5-5-5--5--5---3-------------|
 A--3-3---3-3-3--3--3---1-0-1-0-1-0-1-|  
 E------------------------------------|
 PM|---|  . |--| .  .         

 cymbals and bass...+extra guitar plays this
 e------------------------------------|
 B------------------------------------|
 G--5---------------------------------|
 D--5---------------------------------|
 A--3---------------------------------| 
 E------------------------------------|
  Let ring

 e------------------------------------|
 B------------------------------------|
 G--5-5---5-5-5--5--5---3-------------|
 D--5-5---5-5-5--5--5---3-------------|
 A--3-3---3-3-3--3--3---1-0-1-0-1-0-1-|  
 E------------------------------------|
 PM|---|  . |--| .  .  
       
 e-------------------------------------|
 B-------------------------------------|
 G--5-5---5-5-5--5--5---3-3-3-3-3-3-3--|
 D--5-5---5-5-5--5--5---3-3-3-3-3-3-3--|
 A--3-3---3-3-3--3--3---1-1-1-1-1-1-1--|  
 E-------------------------------------|
 PM|---|  . |--| .  .        

 verse 1:

    What's going on tonight? Is everything alright?
e|-------------------------------------------|
B|-------------------------------------------|
G|--------------------------5----------------|
D|-3------------------------5----------------|
A|-3------------------------3----------------|
E|-1-----------------------------------------|
    right?
e|----------------------------------------------------------|
B|----------------------------------------------------------|
G|--3--3-3-3-3----3--3-3-3-3----3--3-3-3-3----3-3-3--5-5-5--|
D|--3--3-3-3-3----3--3-3-3-3----3--3-3-3-3----3-3-3--5-5-5--|
A|0h1--1-1-1-1--0h1--1-1-1-1--0h1--1-1-1-1--0h1-1-1--3-3-3--|
E|----------------------------------------------------------|
  PM  |-------|     |-------|     |-------|
I hope that nothing's wrong   I haven't seen you in so 
e|-------------------------------------------|
B|-------------------------------------------|
G|--------------------------5----------------|
D|-3------------------------5----------------|  
A|-3------------------------3----------------|
E|-1-----------------------------------------|
  long
e|----------------------------------------------------------|
B|----------------------------------------------------------|
G|--3--3-3-3-3----3--3-3-3-3----3--3-3-3-3----3-3-3--5-5-5--|
D|--3--3-3-3-3----3--3-3-3-3----3--3-3-3-3----3-3-3--5-5-5--|
A|0h1--1-1-1-1--0h1--1-1-1-1--0h1--1-1-1-1--0h1-1-1--3-3-3--|
E|----------------------------------------------------------|
  PM  |-------|     |-------|     |-------|

  refrain:

    I'm away, you're here to stay and I'm away and you're ok
e|--1----1----1-1-1-1----1-1---1-1-1-----------------------------------|
B|--1----1----1-1-1-1----1-1---1-1-1---5----5----5-5-5-5----5-5---5-5-5|
G|--2----2----2-2-2-2----2-2---2-2-2---5----5----5-5-5-5----5-5---5-5-5|
D|--3----3----3-3-3-3----3-3---3-3-3---5----5----5-5-5-5----5-5---5-5-5|
A|--3----3----3-3-3-3----3-3---3-3-3---3----3----3-3-3-3----3-3---3-3-3|
E|--1----1----1-1-1-1----1-1---1-1-1-----------------------------------|

   You're here to stay and I'm away, you're here to stay and I'm ok
e|---------------------------------------------------------------------|
B|--3----3----3-3-3-3----3-3---3-3-3---5----5----5-5-5-5----5-5---5-5-5|
G|--3----3----3-3-3-3----3-3---3-3-3---5----5----5-5-5-5----5-5---5-5-5|
D|--3----3----3-3-3-3----3-3---3-3-3---5----5----5-5-5-5----5-5---5-5-5|
A|--1----1----1-1-1-1----1-1---1-1-1---3----3----3-3-3-3----3-3---3-3-3|
E|---------------------------------------------------------------------|

 erse 2:

   What exactly do you do,    when I'm not with 
e|-------------------------------------------|
B|-------------------------------------------|
G|--------------------------5----------------|
D|-3------------------------5----------------|
A|-3------------------------3----------------|
E|-1-----------------------------------------|

   you?
e|----------------------------------------------------------|
B|----------------------------------------------------------|
G|--3--3-3-3-3----3--3-3-3-3----3--3-3-3-3----3-3-3--5-5-5--|
D|--3--3-3-3-3----3--3-3-3-3----3--3-3-3-3----3-3-3--5-5-5--|
A|0h1--1-1-1-1--0h1--1-1-1-1--0h1--1-1-1-1--0h1-1-1--3-3-3--|
E|----------------------------------------------------------|
  PM  |-------|     |-------|     |-------|
      What exactly do you say,   all the time that I'm 
e|-------------------------------------------|
B|-------------------------------------------|
G|--------------------------5----------------|
D|-3------------------------5----------------|
A|-3------------------------3----------------|
E|-1-----------------------------------------|
   away?
e|----------------------------------------------------------|
B|----------------------------------------------------------|
G|--3--3-3-3-3----3--3-3-3-3----3--3-3-3-3----3-3-3--5-5-5--|
D|--3--3-3-3-3----3--3-3-3-3----3--3-3-3-3----3-3-3--5-5-5--|
A|0h1--1-1-1-1--0h1--1-1-1-1--0h1--1-1-1-1--0h1-1-1--3-3-3--|
E|----------------------------------------------------------|
  PM  |-------|     |-------|     |-------|
[ Tab from: http://www.guitartabs.cc/tabs/m/mxpx/im_ok_youre_ok_tab_ver_2.html ]
Refrain:
    I'm away, you're here to stay and I'm away and you're ok
e|--1----1----1-1-1-1----1-1---1-1-1-----------------------------------|
B|--1----1----1-1-1-1----1-1---1-1-1---5----5----5-5-5-5----5-5---5-5-5|
G|--2----2----2-2-2-2----2-2---2-2-2---5----5----5-5-5-5----5-5---5-5-5|
D|--3----3----3-3-3-3----3-3---3-3-3---5----5----5-5-5-5----5-5---5-5-5|
A|--3----3----3-3-3-3----3-3---3-3-3---3----3----3-3-3-3----3-3---3-3-3|
E|--1----1----1-1-1-1----1-1---1-1-1-----------------------------------|

   You're here to stay and I'm away, you're here to stay and I'm ok
e|---------------------------------------------------------------------|
B|--3----3----3-3-3-3----3-3---3-3-3---5----5----5-5-5-5----5-5---5-5-5|
G|--3----3----3-3-3-3----3-3---3-3-3---5----5----5-5-5-5----5-5---5-5-5|
D|--3----3----3-3-3-3----3-3---3-3-3---5----5----5-5-5-5----5-5---5-5-5|
A|--1----1----1-1-1-1----1-1---1-1-1---3----3----3-3-3-3----3-3---3-3-3|
E|---------------------------------------------------------------------| repeat
Bridge:
    You tell me nothing's wrong   Seems like I've been gone oh so long

  guitar 1:
    Dm
e|--5---------------------------5----------------5----------------------|
B|--6---------------------------6----------------6----------------------|
G|--7---------------------------6----------------5-----------3------5---|
D|-----------------------------------------------------------3------5---|
A|-----------------------------------------------------------1------3---|
E|----------------------------------------------------------------------|
guitar 2:
fill 1
e|--5---------------------------------5----------------5-|
B|--6------------------------------6----------------6----|
G|--7---------------------------6----------------5-------|
D|-------------------------------------------------------|
A|-------------------------------------------------------|
E|-------------------------------------------------------|
    Nothing seems to have changed       Yet the familiar things seem all so strange

guitar 1:
e|--5---------------------------5----------------5--------------|
B|--6---------------------------6----------------6--------------|
G|--7---------------------------6----------------5-----------3--|
D|-----------------------------------------------------------3--|
A|-----------------------------------------------------------1--|
E|--------------------------------------------------------------|

guitar 2:
fill 1
e|--5---------------------------------5----------------5-|
B|--6------------------------------6----------------6----|
G|--7---------------------------6----------------5-------|
D|-------------------------------------------------------|
A|-------------------------------------------------------|
E|-------------------------------------------------------|

to build up to refrain again:
guitar 1:
(lyrics cont.)

strange

e|--------------------|
B|-5-5-5-5--X-x--X-x--|
G|-5-5-5-5--X-x--X-x--|
D|-5-5-5-5--X-x--X-x--|
A|-3-3-3-3--X-x--X-x--|
E|--------------------|

Refrain:
    I'm away, you're here to stay and I'm away and you're ok
e|--1----1----1-1-1-1----1-1---1-1-1-----------------------------------|
B|--1----1----1-1-1-1----1-1---1-1-1---5----5----5-5-5-5----5-5---5-5-5|
G|--2----2----2-2-2-2----2-2---2-2-2---5----5----5-5-5-5----5-5---5-5-5|
D|--3----3----3-3-3-3----3-3---3-3-3---5----5----5-5-5-5----5-5---5-5-5|
A|--3----3----3-3-3-3----3-3---3-3-3---3----3----3-3-3-3----3-3---3-3-3|
E|--1----1----1-1-1-1----1-1---1-1-1-----------------------------------|

   You're here to stay and I'm away, you're here to stay and I'm ok
e|---------------------------------------------------------------------|
B|--3----3----3-3-3-3----3-3---3-3-3---5----5----5-5-5-5----5-5---5-5-5|
G|--3----3----3-3-3-3----3-3---3-3-3---5----5----5-5-5-5----5-5---5-5-5|
D|--3----3----3-3-3-3----3-3---3-3-3---5----5----5-5-5-5----5-5---5-5-5|
A|--1----1----1-1-1-1----1-1---1-1-1---3----3----3-3-3-3----3-3---3-3-3|
E|---------------------------------------------------------------------|

I'm away, you're here to stay and I'm away and you're 
    F
e|-------------------------------------------|
B|--10--10----10-10-10-10----10-10---10-10-10|
G|--10--10----10-10-10-10----10-10---10-10-10|
D|--10--10----10-10-10-10----10-10---10-10-10|
A|--8---8-----8--8--8--8-----8--8----8--8--8-|
E|-------------------------------------------|

    ok
    C
e|--8---8-----8--8--8--8-----8--8----8--8--8-|
B|--8---8-----8--8--8--8-----8--8----8--8--8-|
G|--9---9-----9--9--9--9-----9--9----9--9--9-|
D|--10--10----10-10-10-10----10-10---10-10-10|
A|--10--10----10-10-10-10----10-10---10-10-10|
E|--8---8-----8--8--8--8-----8--8----8--8--8-|

You're here to stay and I'm away, you're here to stay and I'm 
    Bb
e|--6---6-----6--6--6--6-----6--6----6--6--6-|
B|--6---6-----6--6--6--6-----6--6----6--6--6-|
G|--7---7-----7--7--7--7-----7--7----7--7--7-|
D|--8---8-----8--8--8--8-----8--8----8--8--8-|
A|--8---8-----8--8--8--8-----8--8----8--8--8-|
E|--6---6-----6--6--6--6-----6--6----6--6--6-|

   ok
    C
e|--8---8-----8--8--8--8-----8--8----8--8--8-|
B|--8---8-----8--8--8--8-----8--8----8--8--8-|
G|--9---9-----9--9--9--9-----9--9----9--9--9-|
D|--10--10----10-10-10-10----10-10---10-10-10|
A|--10--10----10-10-10-10----10-10---10-10-10|
E|--8---8-----8--8--8--8-----8--8----8--8--8-|

played over chorus:
fill 2:

e|-------------------------------------|
B|--8-8-8--5-5-5--6-6-6--5-5-5--6-6-5-5|
G|--5-5-5--5-5-5--5-5-5--5-5-5--5-5-5-5|
D|-------------------------------------|
A|-------------------------------------|
E|-------------------------------------|repeat

fill 3:
e|-------------------------------------|
B|--6-5---6-5---6-5---6-5---6-5---6-5--|
G|--5-5---5-5---5-5---5-5---5-5---5-5--|
D|-------------------------------------|
A|-------------------------------------|
E|-------------------------------------|fade

| .  staccato
| /  slide up
| \  slide down
| h  hammer-on
| p  pull-off
| ~  vibrato
| +  harmonic
| x  Mute note
Comments