Mxpx - Gsf Chords & Tabs

 

Gsf Chords & Tabs

Mxpx Chords & Tabs

Version: 9 Type: Tab 0 ratings
1 star 2 stars 3 stars 4 stars 5 stars
comments

Gsf Tab

   
-------------------------------------------------------------------------------
			     GSF - Mxpx
-------------------------------------------------------------------------------
Tabbed by: Jeff McConnell
Email:

Tuning:Standard



Intro Riff (x2)
e|------------------------------------------------------------------|
B|------------------------------------------------------------------|
G|------------------------------------------------------------------|
D|------------------------9----------------5-----------------7------|
A|--------5---------7-7-7---7-7------3-3-3---3--3------5-5-5---5--5-|
E|--3-3-3---3-3-----------------------------------------------------|


Verse (palmuted)
e|-----------------------------------------------------------------|
B|-----------------------------------------------------------------|
G|----------------5------7---------------------5------7----777777--|
D|--5------2------5-x12--7-x12---5------2------5-x12--7-x6-777777--|
A|--5-x12--2-x12--3------5-------5-x12--2-x12--3------5----555555--|
E|--3------0------*------*-------3------0------*------*------------|
    *      *

Prechorus
e|---------------------------|
B|---------------------------|
G|--------4-----5-----7------|
D|--5-----4-x6--5-x6--7-x6---| x2
A|--5-x6--2-----3-----5------|
E|--3------------------------|


Chorus
e|-------------------------------------------------------|
B|-------------------------------------------------------|
G|--9------5------4------7--------9------5---------------|
D|--9-x12--5-x12--4-x12--7-x12----9-x12--5-x12--5--------|
A|--7------3------2------5--------7------3------5-x12----|
E|----------------------------------------------3--------|

[ Tab from: http://www.guitartabs.cc/tabs/m/mxpx/gsf_tab_ver_9.html ]
Intro Riff (x2)
e|------------------------------------------------------------------|
B|------------------------------------------------------------------|
G|------------------------------------------------------------------|
D|------------------------9----------------5-----------------7------|
A|--------5---------7-7-7---7-7------3-3-3---3--3------5-5-5---5--5-|
E|--3-3-3---3-3-----------------------------------------------------|


Verse (palmuted)
e|-----------------------------------------------------------------|
B|-----------------------------------------------------------------|
G|----------------5------7---------------------5------7----777777--|
D|--5------2------5-x12--7-x12---5------2------5-x12--7-x6-777777--|
A|--5-x12--2-x12--3------5-------5-x12--2-x12--3------5----555555--|
E|--3------0------*------*-------3------0------*------*------------|
    *      *

Prechorus
e|---------------------------|
B|---------------------------|
G|--------4-----5-----7------|
D|--5-----4-x6--5-x6--7-x6---| x2
A|--5-x6--2-----3-----5------|
E|--3------------------------|

Chorus
e|-------------------------------------------------------|
B|-------------------------------------------------------|
G|--9------5------4------7--------9------5---------------|
D|--9-x12--5-x12--4-x12--7-x12----9-x12--5-x12--5--------|
A|--7------3------2------5--------7------3------5-x12----|
E|----------------------------------------------3--------|


Intro Riff (x2)
e|----------------------------------------------------------------------|
B|----------------------------------------------------------------------|
G|----------------------------------------------------------------------|
D|------------------------9----------------5-----------------7-------5--|
A|--------5---------7-7-7---7-7------3-3-3---3--3------5-5-5---5--5--5--|
E|--3-3-3---3-3------------------------------------------------------3--|


| /  slide up
| \  slide down
| h  hammer-on
| p  pull-off
| ~  vibrato
| +  harmonic
| x  Mute note
===============================================================================
Comments