Mxpx - Gsf Chords & Tabs

 

Gsf Chords & Tabs

Mxpx Chords & Tabs

Version: 4 Type: Tab 0 ratings
1 star 2 stars 3 stars 4 stars 5 stars
comments

Gsf Tab

-------------------------------------------------------------------------------
			     GSF - MxPx
-------------------------------------------------------------------------------


this is kinda the easy way

Intro:                                                                     
e|---------------------------------------------------------------------------|
B|---------------------------------------------------------------------------|
G|-----------------------------0-----0-----------0-----0-----------0-----0---|
D|-----------0--0--0--2--2--2-----4-----------------4-----0--0--0-----4------|
A|--------------------------------------3--3--3------------------------------|
E|--3--3--3------------------------------------------------------------------|


Verse:
e|---------------------------------------------------------------------------|
B|---------------------------------------------------------------------------|
G|--------------------------------------------------5-5-5-5-5-5-5-5-5-5-5-5--|
D|--5-5-5-5-5-5-5-5-5-5-5-5-2-2-2-2-2-2-2-2-2-2-2-2-5-5-5-5-5-5-5-5-5-5-5-5--|
A|--5-5-5-5-5-5-5-5-5-5-5-5-2-2-2-2-2-2-2-2-2-2-2-2-3-3-3-3-3-3-3-3-3-3-3-3--|
E|--3-3-3-3-3-3-3-3-3-3-3-3-0-0-0-0-0-0-0-0-0-0-0-0--------------------------|
									   
e|---------------------------------------------------------------------------|
B|---------------------------------------------------------------------------|
G|--7-7-7-7-7-7-7-7-7-7-7-7--------------------------------------------------|
D|--5-5-5-5-5-5-5-5-5-5-5-5--------------------------------------------------|
A|--5-5-5-5-5-5-5-5-5-5-5-5--------------------------------------------------|
E|---------------------------------------------------------------------------|

[ Tab from: http://www.guitartabs.cc/tabs/m/mxpx/gsf_tab_ver_4.html ]
Bridge:
e|---------------------------------------------------------------------------|
B|---------------------------------------------------------------------------|
G|--------------4-4-4-4-4-4-5-5-5-5-5-5-7-7-7-7-7-7--------------------------|
D|--5-5-5-5-5-5-2-2-2-2-2-2-3-3-3-3-3-3-5-5-5-5-5-5--------------------------|
A|--3-3-3-3-3-3-2-2-2-2-2-2-3-3-3-3-3-3-5-5-5-5-5-5--------------------------|
E|--3-3-3-3-3-3--------------------------------------------------------------|


Chorus:
e|---------------------------------------------------------------------------|
B|---------------------------------------------------------------------------|
G|--9-9-9-9-9-9-9-9-9-9-9-9-5-5-5-5-5-5-5-5-5-5-5-5-4-4-4-4-4-4-4-4-4-4-4-4--|
D|--7-7-7-7-7-7-7-7-7-7-7-7-3-3-3-3-3-3-3-3-3-3-3-3-2-2-2-2-2-2-2-2-2-2-2-2--|
A|--7-7-7-7-7-7-7-7-7-7-7-7-3-3-3-3-3-3-3-3-3-3-3-3-2-2-2-2-2-2-2-2-2-2-2-2--|
E|---------------------------------------------------------------------------|

e|---------------------------------------------------------------------------|
B|---------------------------------------------------------------------------|
G|--7-7-7-7-7-7-7-7-7-7-7-7-9-9-9-9-9-9-9-9-9-9-9-9-5-5-5-5-5-5-5-5-5-5-5-5--|
D|--5-5-5-5-5-5-5-5-5-5-5-5-7-7-7-7-7-7-7-7-7-7-7-7-3-3-3-3-3-3-3-3-3-3-3-3--|
A|--5-5-5-5-5-5-5-5-5-5-5-5-7-7-7-7-7-7-7-7-7-7-7-7-3-3-3-3-3-3-3-3-3-3-3-3--|
E|---------------------------------------------------------------------------|

e|---------------------------------------------------------------------------|
B|---------------------------------------------------------------------------|
G|--------------------------7-7-7-7-7-7-7-7-7-7-7-7--------------------------|
D|--5-5-5-5-5-5-5-5-5-5-5-5-5-5-5-5-5-5-5-5-5-5-5-5--------------------------|
A|--3-3-3-3-3-3-3-3-3-3-3-3-5-5-5-5-5-5-5-5-5-5-5-5--------------------------|
E|--3-3-3-3-3-3-3-3-3-3-3-3--------------------------------------------------|


End:
e|----------|
B|----------|
G|----------|
D|--5-------|
A|--5-------|
E|--3-------|


Order:
Intro X2
Bridge X2
Chorus
Intro X2
Bridge X2
Intro X2
End
Comments