Mxpx - Foolish Chords & Tabs

 

Foolish Chords & Tabs

Mxpx Chords & Tabs

Version: 1 Type: Tab 0 ratings
1 star 2 stars 3 stars 4 stars 5 stars
comments

Foolish Tab

MxPx - Foolish
Tabbed by Trinki77

I´m sure this tab is correct.

Intro
e|--------------------------------------------------------------------------------------|
B|--------------------------------------------------------------------------------------|
G|-----------------------7-9------------------------------------------------------------|
D|---7-7-7-7-7---7-7-7-7 7-9------------------------------------------------------------|
A|---7-7-7-7-7---7-7-7-7-5-7------------------------------------------------------------|
E|---5-5-5-5-5---5-5-5-5----------------------------------------------------------------|

Verse play 2 times
e|--------------------------------------------------------------------------------------|
B|--------------------------------------------------------------------------------------|
G|--------------------------------------------------------------------------------------|
D|---x-x-7--x-x-7--x-x-7--x-x-7--x-x-4--x-x-4--x-x-4--x-x-4-----------------------------|
A|---x-x-7--x-x-7--x-x-7--x-x-7--x-x-4--x-x-4--x-x-4--x-x-4-----------------------------|
E|---x-x-5--x-x-5--x-x-5--x-x-5--x-x-2--x-x-2--x-x-2--x-x-2-----------------------------|

                                    first ending
e|------------------------------|-------------------------------------------------------|
B|------------------------------|-------------------------------------------------------|
G|---7-7-7-7-7-7--9-9-9-9-9-9---|----------------------7-9------------------------------|
D|---7-7-7-7-7-7--9-9-9-9-9-9---|--x-x-7--x-x-7--x-x-7-7-9------------------------------|
A|---5-5-5-5-5-5--7-7-7-7-7-7---|--x-x-7--x-x-7--x-x-7-5-7------------------------------|
E|------------------------------|--x-x-5--x-x-5--x-x-5----------------------------------|

e|-----                         |-------------------------------------------------------|
B|-----                         |-------------------------------------------------------|
G|-----                         |-------------------------------------------------------|
D|-----        second ending    |--7-7-7-7-7-7-7-7-7-7----------------------------------|
A|-----                         |--7-7-7-7-7-7-7-7-7-7----------------------------------|
E|-----                         |--5-5-5-5-5-5-5-5-5-5----------------------------------|

Pre Chorus
e|--------------------------------------------------------------------------------------|
B|--------------------------------------------------------------------------------------|
G|---7-7-7-7-7-7--4-4-4-4-4-4-----------------------------------------------------------|
D|---7-7-7-7-7-7--4-4-4-4-4-4--4-4-4-4-4-4--7-7-7-7-7-7---------------------------------|
A|---5-5-5-5-5-5--2-2-2-2-2-2--4-4-4-4-4-4--7-7-7-7-7-7---------------------------------|
E|-----------------------------2-2-2-2-2-2--5-5-5-5-5-5---------------------------------|
[ Tab from: http://www.guitartabs.cc/tabs/m/mxpx/foolish_tab.html ]
e|--------------------------------------------------------------------------------------|
B|--------------------------------------------------------------------------------------|
G|---7-7-7-7-7-7--4-4-4-4-4-4-----------------------------------------------------------|
D|---7-7-7-7-7-7--4-4-4-4-4-4--4-4-4-4-4-4--2-- let ring, than slide down --------------|
A|---5-5-5-5-5-5--2-2-2-2-2-2--4-4-4-4-4-4--2--- with the Pic --------------------------|
E|-----------------------------2-2-2-2-2-2--0-------------------------------------------|

Chorus
e|--------------------------------------------------------------------------------------|
B|--------------------------------------------------------------------------------------|
G|---7-7-7-7-7-7-7-7-7-7-7-7--4-4-4-4-4-4-4-4-4-4-4-4-----------------------------------|
D|---7-7-7-7-7-7-7-7-7-7-7-7--4-4-4-4-4-4-4-4-4-4-4-4--4-4-4-4-4-4-4-4-4-4-4-4----------|
A|---5-5-5-5-5-5-5-5-5-5-5-5--2-2-2-2-2-2-2-2-2-2-2-2--4-4-4-4-4-4-4-4-4-4-4-4----------|
E|-----------------------------------------------------2-2-2-2-2-2-2-2-2-2-2-2----------|

e|--------------------------------------------------------------------------------------|
B|--------------------------------------------------------------------------------------|
G|----------------------------7-x-x-x-x-x-x-x-x-x-x-x-x---------------------------------|
D|---7-7-7-7-7-7-7-7-7-7-7-7--7-x-x-x-x-x-x-x-x-x-x-x-x--2------------------------------|
A|---7-7-7-7-7-7-7-7-7-7-7-7--5-x-x-x-x-x-x-x-x-x-x-x-x--2-- let ring ------------------|
E|---5-5-5-5-5-5-5-5-5-5-5-5-----------------------------0------------------------------|

1x Intro
1x Verse

e|----------------------------------------------------------------------------------------|
B|----------------------------------------------------------------------------------------|
G|---7-7-7-7-7--9-9-9-9-9-----------------------7-7-7-7-7--9-9-9-9-9----------------------|
D|---7-7-7-7-7--9-9-9-9-9--4-4-4-4-4-4-4-4-4-4--7-7-7-7-7--9-9-9-9-9--7-7-7-7-7-7-7-7-7-7-|
A|---5-5-5-5-5--7-7-7-7-7--4-4-4-4-4-4-4-4-4-4--5-5-5-5-5--7-7-7-7-7--7-7-7-7-7-7-7-7-7-7-|
E|-------------------------2-2-2-2-2-2-2-2-2-2------------------------5-5-5-5-5-5-5-5-5-5-|

1x Pre Chorus
2x Chorus 

Bridge
e|--------------------------------------------------------------------------------------|
B|--------------------------------------------------------------------------------------|
G|-------------------------7-7-7-7-7----9------------------------7-7-7-7-7-7-7-7-7-7----|
D|---4-4-4-4-4--2-2-2-2-2--7-7-7-7-7--7-9--4-4-4-4-4--2-2-2-2-2--7-7-7-7-7-7-7-7-7-7----|
A|---4-4-4-4-4--2-2-2-2-2--5-5-5-5-5--7-7--4-4-4-4-4--2-2-2-2-2--5-5-5-5-5-5-5-5-5-5----|
E|---2-2-2-2-2--0-0-0-0-0-------------5----2-2-2-2-2--0-0-0-0-0-------------------------|

e|--------------------------------------------------------------------------------------|
B|--------------------------------------------------------------------------------------|
G|---------------------7-7-7-7-7----9--------------------7---4-x-x-x-x------------------|
D|---4-4-4-4-4--2-2-2--7-7-7-7-7--7-9--4-4-4-4-4--2-2-2--7---4-x-x-x-x------------------|
A|---4-4-4-4-4--2-2-2--5-5-5-5-5--7-7--4-4-4-4-4--2-2-2--5---2-x-x-x-x------------------|
E|---2-2-2-2-2--0-0-0-------------5----2-2-2-2-2--0-0-0---------------------------------|

1x Chorus

Outro
e|--------------------------------------------------------------------------------------|
B|--------------------------------------------------------------------------------------|
G|------------------------7-9-----------------------------------------------------------|
D|---7-7-7-7-7---7-7-7-7--7-9-7---------------------------------------------------------|
A|---7-7-7-7-7---7-7-7-7--5-7-7---------------------------------------------------------|
E|---5-5-5-5-5---5-5-5-5------5---------------------------------------------------------|

Comments