Mxpx - First Day Of The Rest Of Our Lives Chords & Tabs

 

First Day Of The Rest Of Our Lives Chords & Tabs

Mxpx Chords & Tabs

Version: 1 Type: Tab 0 ratings
1 star 2 stars 3 stars 4 stars 5 stars
comments

First Day Of The Rest Of Our Lives Tab

   
TITLE: "FIRST DAY OF THE REST OF OUR LIVES"
ARTIST: MXPX
TUNING: STANDARD (EADGBE)

~ = Let ring
/ = Slide down
x = Mute strings

INTRO:
   A5
E|-----------------------------------------------------------------
B|-----------------------------------------------------------------
G|-----------------------------------------------------------------
D|-7-7-7---7-7-7---7-7-7---7-7-7---7-7-7---7-7-7---7-7-7---7-7-7---
A|-7-7-7---7-7-7---7-7-7---7-7-7---7-7-7---7-7-7---7-7-7---7-7-7---
E|-5-5-5---5-5-5---5-5-5---5-5-5---5-5-5---5-5-5---5-5-5---5-5-5---

   A5
E|-----------------------------------------------------------------
B|-----------------------------------------------------------------
G|-----------------------------------------------------------------
D|-7-7-7---7-7-7---7-7-7---7-7-7---7-7-7---7-7-7---7-7-7---7-7-7---
A|-7-7-7---7-7-7---7-7-7---7-7-7---7-7-7---7-7-7---7-7-7---7-7-7---
E|-5-5-5---5-5-5---5-5-5---5-5-5---5-5-5---5-5-5---5-5-5---5-5-5---

VERSE:
   A5
E|-----------------------------------------------------------------
B|-----------------------------------------------------------------
G|-----------------------------------------------------------------
D|-7-7-7---7-7-7---7-7-7---7-7-7---7-7-7---7-7-7---7-7-7---7-7-7---
A|-7-7-7---7-7-7---7-7-7---7-7-7---7-7-7---7-7-7---7-7-7---7-7-7---
E|-5-5-5---5-5-5---5-5-5---5-5-5---5-5-5---5-5-5---5-5-5---5-5-5---
"Not a lot right now makes sense to me..."

   A5
E|-----------------------------------------------------------------
B|-----------------------------------------------------------------
G|-----------------------------------------------------------------
D|-7-7-7---7-7-7---7-7-7---7-7-7---7-7-7---7-7-7---7-7-7---7-7-7---
A|-7-7-7---7-7-7---7-7-7---7-7-7---7-7-7---7-7-7---7-7-7---7-7-7---
E|-5-5-5---5-5-5---5-5-5---5-5-5---5-5-5---5-5-5---5-5-5---5-5-5---

PRECHORUS:
   F#5                  D5            A5
E|------------------------------------------------------------------
B|------------------------------------------------------------------
G|-11-------------------7-------------------------------------------
D|-11-11-11-11-11-11-11-7-7-7-7-7-7-7-7-----------------------------
A|-9--9--9--9--9--9--9--5-5-5-5-5-5-5-7-7-7-7-7-7-7-7-7-7-7-7-7-7-7-
E|------------------------------------5-5-5-5-5-5-5-5-5-5-5-5-5-5-5-
P.M.  .  .  .  .  .  .    . . . . . .   . . . . . . . . . . . . . .
"Gonna chase my dreams and catch up to them"

   F#5                  D5            E5
E|--------------------------------------------------------------------
B|--------------------------------------------------------------------
G|-11-------------------7-------------9-9-9-9-9-9-9-9-9-9-9-9-9-9-9-9-
D|-11-11-11-11-11-11-11-7-7-7-7-7-7-7-9-9-9-9-9-9-9-9-9-9-9-9-9-9-9-9-
A|-9--9--9--9--9--9--9--5-5-5-5-5-5-5-7-7-7-7-7-7-7-7-7-7-7-7-7-7-7-7-
E|--------------------------------------------------------------------
P.M.  .  .  .  .  .  .    . . . . . .
"Gonna find you somehow..."

CHORUS
   A5                              D5              E5
E|-----------------------------------------------------------------
B|-----------------------------------------------------------------
G|---------------------------------7-7-7-7-7-7-7-7-9-9-9-9-9-9-9-9-
D|-7-7-7-7-7-7-7-7-7-7-7-7-7-7-7-7-7-7-7-7-7-7-7-7-9-9-9-9-9-9-9-9-
A|-7-7-7-7-7-7-7-7-7-7-7-7-7-7-7-7-5-5-5-5-5-5-5-5-7-7-7-7-7-7-7-7-
E|-5-5-5-5-5-5-5-5-5-5-5-5-5-5-5-5---------------------------------
"First day of the rest of our lives..."
   
   A5                              D5              E5
E|-----------------------------------------------------------------
B|-----------------------------------------------------------------
G|---------------------------------7-7-7-7-7-7-7-7-9-9-9-9-9-9-9-9-
D|-7-7-7-7-7-7-7-7-7-7-7-7-7-7-7-7-7-7-7-7-7-7-7-7-9-9-9-9-9-9-9-9-
A|-7-7-7-7-7-7-7-7-7-7-7-7-7-7-7-7-5-5-5-5-5-5-5-5-7-7-7-7-7-7-7-7-
E|-5-5-5-5-5-5-5-5-5-5-5-5-5-5-5-5---------------------------------

   A5                              D5              E5
E|-----------------------------------------------------------------
B|-----------------------------------------------------------------
G|---------------------------------7-7-7-7-7-7-7-7-9-9-9-9-9-9-9-9-
D|-7-7-7-7-7-7-7-7-7-7-7-7-7-7-7-7-7-7-7-7-7-7-7-7-9-9-9-9-9-9-9-9-
A|-7-7-7-7-7-7-7-7-7-7-7-7-7-7-7-7-5-5-5-5-5-5-5-5-7-7-7-7-7-7-7-7-
E|-5-5-5-5-5-5-5-5-5-5-5-5-5-5-5-5---------------------------------

   A5                              D5            
E|-----------------------------------------------------------------
B|-----------------------------------------------------------------
G|---------------------------------7-7-7-7-7-7-7-7-7-7-7-7-7-7-7-7-
D|-7-7-7-7-7-7-7-7-7-7-7-7-7-7-7-7-7-7-7-7-7-7-7-7-7-7-7-7-7-7-7-7-
A|-7-7-7-7-7-7-7-7-7-7-7-7-7-7-7-7-5-5-5-5-5-5-5-5-5-5-5-5-5-5-5-5-
E|-5-5-5-5-5-5-5-5-5-5-5-5-5-5-5-5---------------------------------

   E5
E|---------------------------------
B|---------------------------------
G|-9-9-9-9-9-9-9-9-9-9-9-9-9-9-9-9-
D|-9-9-9-9-9-9-9-9-9-9-9-9-9-9-9-9-
A|-7-7-7-7-7-7-7-7-7-7-7-7-7-7-7-7-
E|---------------------------------

INTRO RIFF:
   A5
E|-----------------------------------------------------------------
B|-----------------------------------------------------------------
G|-----------------------------------------------------------------
D|-7-7-7---7-7-7---7-7-7---7-7-7---7-7-7---7-7-7---7-7-7---7-7-7---
A|-7-7-7---7-7-7---7-7-7---7-7-7---7-7-7---7-7-7---7-7-7---7-7-7---
E|-5-5-5---5-5-5---5-5-5---5-5-5---5-5-5---5-5-5---5-5-5---5-5-5---

   A5
E|-----------------------------------------------------------------
B|-----------------------------------------------------------------
G|-----------------------------------------------------------------
D|-7-7-7---7-7-7---7-7-7---7-7-7---7-7-7---7-7-7---7-7-7---7-7-7---
A|-7-7-7---7-7-7---7-7-7---7-7-7---7-7-7---7-7-7---7-7-7---7-7-7---
E|-5-5-5---5-5-5---5-5-5---5-5-5---5-5-5---5-5-5---5-5-5---5-5-5---

(Rest for verse two)

PRECHORUS:
   F#5                  D5            A5
E|------------------------------------------------------------------
B|------------------------------------------------------------------
G|-11-------------------7-------------------------------------------
D|-11-11-11-11-11-11-11-7-7-7-7-7-7-7-7-----------------------------
A|-9--9--9--9--9--9--9--5-5-5-5-5-5-5-7-7-7-7-7-7-7-7-7-7-7-7-7-7-7-
E|------------------------------------5-5-5-5-5-5-5-5-5-5-5-5-5-5-5-
P.M.  .  .  .  .  .  .    . . . . . .   . . . . . . . . . . . . . .

   F#5                  D5            E5
E|--------------------------------------------------------------------
B|--------------------------------------------------------------------
G|-11-------------------7-------------9-9-9-9-9-9-9-9-9-9-9-9-9-9-9-9-
D|-11-11-11-11-11-11-11-7-7-7-7-7-7-7-9-9-9-9-9-9-9-9-9-9-9-9-9-9-9-9-
A|-9--9--9--9--9--9--9--5-5-5-5-5-5-5-7-7-7-7-7-7-7-7-7-7-7-7-7-7-7-7-
E|--------------------------------------------------------------------
P.M.  .  .  .  .  .  .    . . . . . .

CHORUS:
   A5                              D5              E5
E|-----------------------------------------------------------------
B|-----------------------------------------------------------------
G|---------------------------------7-7-7-7-7-7-7-7-9-9-9-9-9-9-9-9-
D|-7-7-7-7-7-7-7-7-7-7-7-7-7-7-7-7-7-7-7-7-7-7-7-7-9-9-9-9-9-9-9-9-
A|-7-7-7-7-7-7-7-7-7-7-7-7-7-7-7-7-5-5-5-5-5-5-5-5-7-7-7-7-7-7-7-7-
E|-5-5-5-5-5-5-5-5-5-5-5-5-5-5-5-5---------------------------------

   A5                              D5              E5
E|-----------------------------------------------------------------
B|-----------------------------------------------------------------
G|---------------------------------7-7-7-7-7-7-7-7-9-9-9-9-9-9-9-9-
D|-7-7-7-7-7-7-7-7-7-7-7-7-7-7-7-7-7-7-7-7-7-7-7-7-9-9-9-9-9-9-9-9-
A|-7-7-7-7-7-7-7-7-7-7-7-7-7-7-7-7-5-5-5-5-5-5-5-5-7-7-7-7-7-7-7-7-
E|-5-5-5-5-5-5-5-5-5-5-5-5-5-5-5-5---------------------------------
[ Tab from: http://www.guitartabs.cc/tabs/m/mxpx/first_day_of_the_rest_of_our_lives_tab.html ]
   A5                              D5              E5
E|-----------------------------------------------------------------
B|-----------------------------------------------------------------
G|---------------------------------7-7-7-7-7-7-7-7-9-9-9-9-9-9-9-9-
D|-7-7-7-7-7-7-7-7-7-7-7-7-7-7-7-7-7-7-7-7-7-7-7-7-9-9-9-9-9-9-9-9-
A|-7-7-7-7-7-7-7-7-7-7-7-7-7-7-7-7-5-5-5-5-5-5-5-5-7-7-7-7-7-7-7-7-
E|-5-5-5-5-5-5-5-5-5-5-5-5-5-5-5-5---------------------------------

   A5                              D5 
E|-----------------------------------------------------------------
B|-----------------------------------------------------------------
G|---------------------------------7-7-7-7-7-7-7-7-7-7-7-7-7-7-7-7-
D|-7-7-7-7-7-7-7-7-7-7-7-7-7-7-7-7-7-7-7-7-7-7-7-7-7-7-7-7-7-7-7-7-
A|-7-7-7-7-7-7-7-7-7-7-7-7-7-7-7-7-5-5-5-5-5-5-5-5-5-5-5-5-5-5-5-5-
E|-5-5-5-5-5-5-5-5-5-5-5-5-5-5-5-5---------------------------------

   E5
E|---------------------------------
B|---------------------------------
G|-9-9-9-9-9-9-9-9-9-9-9-9-9-9-9-9-
D|-9-9-9-9-9-9-9-9-9-9-9-9-9-9-9-9-
A|-7-7-7-7-7-7-7-7-7-7-7-7-7-7-7-7-
E|---------------------------------

BRIDGE:
   F#5                    D5                E5
E|----------------------------------------------------
B|----------------------------------------------------
G|-11-11-11-11-11/-x---11/7-7-7-7-7-7-7-7-7-9-9-9-9-9-
D|-11-11-11-11-11/-x---11/7-7-7-7-7-7-7-7-7-9-9-9-9-9-
A|-9--9--9--9--9-/-x---9-/5-5-5-5-5-5-5-5-5-7-7-7-7-7-
E|----------------------------------------------------

   F#5                    D5                E5
E|----------------------------------------------------
B|----------------------------------------------------
G|-11-11-11-11-11/-x---11/7-7-7-7-7-7-7-7-7-9-9-9-9-9-
D|-11-11-11-11-11/-x---11/7-7-7-7-7-7-7-7-7-9-9-9-9-9-
A|-9--9--9--9--9-/-x---9-/5-5-5-5-5-5-5-5-5-7-7-7-7-7-
E|----------------------------------------------------

   A5
E|-----------------------------------------------------------------
B|-----------------------------------------------------------------
G|-----------------------------------------------------------------
D|-7-7-7---7-7-7---7-7-7---7-7-7---7-7-7---7-7-7---7-7-7---7-7-7---
A|-7-7-7---7-7-7---7-7-7---7-7-7---7-7-7---7-7-7---7-7-7---7-7-7---
E|-5-5-5---5-5-5---5-5-5---5-5-5---5-5-5---5-5-5---5-5-5---5-5-5--- Fades out.

CHORUS:
   A5                              D5              E5
E|-----------------------------------------------------------------
B|-----------------------------------------------------------------
G|---------------------------------7-7-7-7-7-7-7-7-9-9-9-9-9-9-9-9-
D|-7-7-7-7-7-7-7-7-7-7-7-7-7-7-7-7-7-7-7-7-7-7-7-7-9-9-9-9-9-9-9-9-
A|-7-7-7-7-7-7-7-7-7-7-7-7-7-7-7-7-5-5-5-5-5-5-5-5-7-7-7-7-7-7-7-7-
E|-5-5-5-5-5-5-5-5-5-5-5-5-5-5-5-5---------------------------------

   A5                              D5              E5
E|-----------------------------------------------------------------
B|-----------------------------------------------------------------
G|---------------------------------7-7-7-7-7-7-7-7-9-9-9-9-9-9-9-9-
D|-7-7-7-7-7-7-7-7-7-7-7-7-7-7-7-7-7-7-7-7-7-7-7-7-9-9-9-9-9-9-9-9-
A|-7-7-7-7-7-7-7-7-7-7-7-7-7-7-7-7-5-5-5-5-5-5-5-5-7-7-7-7-7-7-7-7-
E|-5-5-5-5-5-5-5-5-5-5-5-5-5-5-5-5---------------------------------

   A5                              D5              E5
E|-----------------------------------------------------------------
B|-----------------------------------------------------------------
G|---------------------------------7-7-7-7-7-7-7-7-9-9-9-9-9-9-9-9-
D|-7-7-7-7-7-7-7-7-7-7-7-7-7-7-7-7-7-7-7-7-7-7-7-7-9-9-9-9-9-9-9-9-
A|-7-7-7-7-7-7-7-7-7-7-7-7-7-7-7-7-5-5-5-5-5-5-5-5-7-7-7-7-7-7-7-7-
E|-5-5-5-5-5-5-5-5-5-5-5-5-5-5-5-5---------------------------------

   A5                              D5         
E|-----------------------------------------------------------------
B|-----------------------------------------------------------------
G|---------------------------------7-7-7-7-7-7-7-7-7-7-7-7-7-7-7-7-
D|-7-7-7-7-7-7-7-7-7-7-7-7-7-7-7-7-7-7-7-7-7-7-7-7-7-7-7-7-7-7-7-7-
A|-7-7-7-7-7-7-7-7-7-7-7-7-7-7-7-7-5-5-5-5-5-5-5-5-5-5-5-5-5-5-5-5-
E|-5-5-5-5-5-5-5-5-5-5-5-5-5-5-5-5---------------------------------

   E5
E|---------------------------------
B|---------------------------------
G|-9-9-9-9-9-9-9-9-9-9-9-9-9-9-9-9-
D|-9-9-9-9-9-9-9-9-9-9-9-9-9-9-9-9-
A|-7-7-7-7-7-7-7-7-7-7-7-7-7-7-7-7-
E|---------------------------------

FINAL CHORUS:
   B5                              E5              F#5
E|-------------------------------------------------------------------------
B|-------------------------------------------------------------------------
G|---------------------------------9-9-9-9-9-9-9-9-11-11-11-11-11-11-11-11-
D|-9-9-9-9-9-9-9-9-9-9-9-9-9-9-9-9-9-9-9-9-9-9-9-9-11-11-11-11-11-11-11-11-
A|-9-9-9-9-9-9-9-9-9-9-9-9-9-9-9-9-7-7-7-7-7-7-7-7-9--9--9--9--9--9--9--9--
E|-7-7-7-7-7-7-7-7-7-7-7-7-7-7-7-7-----------------------------------------

   B5                              E5              F#5
E|-------------------------------------------------------------------------
B|-------------------------------------------------------------------------
G|---------------------------------9-9-9-9-9-9-9-9-11-11-11-11-11-11-11-11-
D|-9-9-9-9-9-9-9-9-9-9-9-9-9-9-9-9-9-9-9-9-9-9-9-9-11-11-11-11-11-11-11-11-
A|-9-9-9-9-9-9-9-9-9-9-9-9-9-9-9-9-7-7-7-7-7-7-7-7-9--9--9--9--9--9--9--9--
E|-7-7-7-7-7-7-7-7-7-7-7-7-7-7-7-7-----------------------------------------

   B5                              E5              F#5
E|-------------------------------------------------------------------------
B|-------------------------------------------------------------------------
G|---------------------------------9-9-9-9-9-9-9-9-11-11-11-11-11-11-11-11-
D|-9-9-9-9-9-9-9-9-9-9-9-9-9-9-9-9-9-9-9-9-9-9-9-9-11-11-11-11-11-11-11-11-
A|-9-9-9-9-9-9-9-9-9-9-9-9-9-9-9-9-7-7-7-7-7-7-7-7-9--9--9--9--9--9--9--9--
E|-7-7-7-7-7-7-7-7-7-7-7-7-7-7-7-7-----------------------------------------

   B5                              E5            
E|-----------------------------------------------------------------
B|-----------------------------------------------------------------
G|---------------------------------9-9-9-9-9-9-9-9-9-9-9-9-9-9-9-9-
D|-9-9-9-9-9-9-9-9-9-9-9-9-9-9-9-9-9-9-9-9-9-9-9-9-9-9-9-9-9-9-9-9-
A|-9-9-9-9-9-9-9-9-9-9-9-9-9-9-9-9-7-7-7-7-7-7-7-7-7-7-7-7-7-7-7-7-
E|-7-7-7-7-7-7-7-7-7-7-7-7-7-7-7-7---------------------------------

   F#5
E|-------------------------------------------------
B|-------------------------------------------------
G|-11-11-11-11-11-11-11-11-11-11-11-11-11-11-11-11-
D|-11-11-11-11-11-11-11-11-11-11-11-11-11-11-11-11-
A|-9--9--9--9--9--9--9--9--9--9--9--9--9--9--9--9--
E|-------------------------------------------------

OUTRO:
   B5
E|---------------------------------------------------------------
B|---------------------------------------------------------------
G|---------------------------------------------------------------
D|-9-9-9---9-9-9---9-9-9---9-9-9---9-9-9---9-9-9---9-9-9---9-9-9-
A|-9-9-9---9-9-9---9-9-9---9-9-9---9-9-9---9-9-9---9-9-9---9-9-9-
E|-7-7-7---7-7-7---7-7-7---7-7-7---7-7-7---7-7-7---7-7-7---7-7-7-

During the outro, a second guitar plays this:
E|---------------------------------10~-------------12~-----------
B|-10~-----------------------------------------------------------
G|---------------------------------------------------------------
D|---------------------------------------------------------------
A|---------------------------------------------------------------
E|---------------------------------------------------------------

   B5
E|---------------------------------------------------------------
B|---------------------------------------------------------------
G|---------------------------------------------------------------
D|-9-9-9---9-9-9---9-9-9---9-9-9---9-9-9---9-9-9---9-9-9---9-9-9-
A|-9-9-9---9-9-9---9-9-9---9-9-9---9-9-9---9-9-9---9-9-9---9-9-9-
E|-7-7-7---7-7-7---7-7-7---7-7-7---7-7-7---7-7-7---7-7-7---7-7-7-

E|---------------------------------10~-------------12~-----------
B|-10~-----------------------------------------------------------
G|---------------------------------------------------------------
D|---------------------------------------------------------------
A|---------------------------------------------------------------
E|---------------------------------------------------------------
   
   B5
E|---------------------------------------------------------------
B|---------------------------------------------------------------
G|---------------------------------------------------------------
D|-9-9-9---9-9-9---9-9-9---9-9-9---9-9-9---9-9-9---9-9-9---9-9-9-
A|-9-9-9---9-9-9---9-9-9---9-9-9---9-9-9---9-9-9---9-9-9---9-9-9-
E|-7-7-7---7-7-7---7-7-7---7-7-7---7-7-7---7-7-7---7-7-7---7-7-7-

   ***FADE OUT ACROSS THIS SECTION***

Comments