Mxpx - First Class Mail Chords & Tabs

 

First Class Mail Chords & Tabs

Mxpx Chords & Tabs

Version: 1 Type: Tab 0 ratings
1 star 2 stars 3 stars 4 stars 5 stars
comments

First Class Mail Tab

MxPx,First Class Mail.
 Tabbed by Federico E..
  
Artist: MxPx
Song: First Class Mail
Album: Let it Happen



Intro: 
e|------------------------------------------------------------------| 
B|------------------------------------------------------------------| 
G|--3-------------3-------------------------------------------------| 
D|--3-------------3-------------------------------------------------| 
A|--1-------------1-------------------------------------------------| 
E|------------------------------------------------------------------| 

Solo: 
e|------------------------------------------------------------------| 
B|-----------4--------------------------------4-------9-7-6--4-6-7--| 
G|---3--5-6----6-5--3--5-6-----5-6----3---5-6---6-5-----------------| 
D|--------------------------6---------------------------------------| 
A|------------------------------------------------------------------| 
E|------------------------------------------------------------------| 

Riff 1:(play 4 times) 
e|---------------------------------------------------------| 
B|---------------------------------------------------------| 
G|--3-----------6------------------------------------------| 
D|--3-----4-----6-----6------------------------------------| 
A|--1-----4-----4-----6------------------------------------| 
E|--------2-----------4------------------------------------| 
[ Tab from: http://www.guitartabs.cc/tabs/m/mxpx/first_class_mail_tab.html ]
Riff 2:(play 2 times) 
e|------------------------------------------------| 
B|------------------------------------------------| 
G|-3-----6------8------11-10-8-6------------------| 
D|-3-----6------8------11-10-8-6------------------| 
A|-1-----4------6------9--8--6-4------------------| 
E|------------------------------------------------| 

Riff 3:(play 2 times) 
e|------------------------------------------------------------------| 
B|------------------------------------------------------------------| 
G|--3-----6-3-----4-3-----4-3--8--11-3------------------------------| 
D|--3-----6-3-----4-3-----4-3--8--11-3------------------------------| 
A|--1-----4-1-----6-1-----6-1--6--9--1------------------------------| 
E|------------------------------------------------------------------| 

e|------------------------------------------------------------------| 
B|------------------------------------------------------------------| 
G|-------6-----3--------3-------------------------------------------| 
D|--4----6--6--3--------3-------------------------------------------| 
A|--4----4--6--1--------1-------------------------------------------| 
E|--2-------4-------------------------------------------------------| 

then...
solo 
Riff 1-4 times 
Riff 2-2 times 
Riff 2-2 times 

Outro: 
e|------------------------------------------------------------------| 
B|------------------------------------------------------------------| 
G|-----4----3-------------------------------------------------------| 
D|-4---4-4--3-------------------------------------------------------| 
A|-4---6-4--1-------------------------------------------------------| 
E|-2-----6----------------------------------------------------------| 
:: Ultimate Guitar Archive :: 
http://www.ultimate-guitar.com 



Comments