Mxpx - Educated Guess Chords & Tabs

 

Educated Guess Chords & Tabs

Mxpx Chords & Tabs

Version: 2 Type: Bass Tab 0 ratings
1 star 2 stars 3 stars 4 stars 5 stars
comments

Educated Guess Bass Tab

Song: Educated Guess
Band: MxPx
Tabbed By: Dave Parisi

Intro              2x (then play after stars also)
G:--------------------*---------------
D:--------------------*---------------
A:------0----1----3---*--(3)--1--0----
E:-1------------------*-------------3-

Verse
G:------------------
D:------------------
A:-----0>--1>--3>---
E:-1>---------------

Chorus
G:------------------
D:------------------
A:-1>------5>--3>---
E:-----1>-----------
[ Tab from: http://www.guitartabs.cc/tabs/m/mxpx/educated_guess_btab_ver_2.html ]
Chorus 2
G:---------------------------------
D:---------------------------------
A:-1----33-333-33-333-333----------
E:----1----------------------------

Chorus 3
G:----------------------
D:----------------------
A:------------------3---
E:-1--01--01010101------

Bridge    2x (then play after stars also)
G:----------*-----------------------
D:----------*-----------------------
A:---0-1-33-*---00000-1-33333-------
E:-1--------*-1---------------------

Playing Order:
Intro   1X
Verse   4x
Chorus  1X
Chorus2 1x
Chorus3 1x
Verse   2x
Bridge  1x
Chorus  1x
Chorus2 1x
Chorus  1x
Chorus2 1x
Chorus3 1x (add E:---1---  at the end)


Comments