Mxpx - Doing Time Chords & Tabs

 

Doing Time Chords & Tabs

Mxpx Chords & Tabs

Version: 4 Type: Bass Tab 0 ratings
1 star 2 stars 3 stars 4 stars 5 stars
comments

Doing Time Bass Tab

The other doing time tab is correct but not specific in what area to play
what note. This tab will show you exactly how to play this song.
Enjoy,
Nate

Intro:2x
G:---------------------------------------------
D:---------------------------------------------
A:-----------4-4-4444--2-2-2222--4-4-4444------
E:-2-2-2222------------------------------------

Verse 1:1x
I remember times I had some were happy, some were sad 
G:---------------------------------------------
D:---------------------------------------------
A:-----------4-4-4444--2-2-2222--4-4-4444------
E:-2-2-2222------------------------------------

Ending of Verse 1:1x
memories me and my partners in crime throwing up a thousand times 
G:---------------------------------------------
D:---------------------------------------------
A:-----------4-4-4444--22222222--44444444------
E:-2-2-2222------------------------------------

Chorus:1x
I got through it, I feel fine I went to school and did my time 
In a sense I'm out, in a sense I'm free to be what I wanna be 
G:---------------------------------------------------
D:---------------------------------------------------
A:-----------------------222222222--4(let ring)------
E:--222222222-000000000------------------------------

Intrumentals:2x
G:---------------------------------------------
D:---------------------------------------------
A:-----------4-4-4444--2-2-2222--4-4-4444------
E:-2-2-2222------------------------------------

Verse 2:1x
Fun was cartoons Saturdays Fun was staying up past eight 
G:---------------------------------------------
D:---------------------------------------------
A:-----------4-4-4444--2-2-2222--4-4-4444------
E:-2-2-2222------------------------------------
[ Tab from: http://www.guitartabs.cc/tabs/m/mxpx/doing_time_btab_ver_4.html ]
Ending of Verse 2:1x
lame was tring to fit in lame was the wrong crowd let me it 
G:---------------------------------------------
D:---------------------------------------------
A:-----------4-4-4444--22222222--44444444------
E:-2-2-2222------------------------------------

Chorus:1x
I got through it, I feel fine I went to school and did my time 
In a sense I'm out, in a sense I'm free to be what I wanna be 
G:---------------------------------------------------
D:---------------------------------------------------
A:-----------------------222222222--4(let ring)------
E:--222222222-000000000------------------------------

Interlude:1x
You gotta stick together with who you are and who you know 
You gotta remember Where you've been and where you wanna go 
G:-----------------------------------------------------------
D:-----------------------------------------------------------
A:--6666666666-4444444-2222222-22222(palm mute last note)----
E:-----------------------------------------------------------

Verse3:1x
Never did homework after school did all the things that i thought were cool
G:---------------------------------------
D:---------------------------------------
A:-----------4-4-4444--2-2-2222--4-4-4444--
E:-2-2-2222------------------------------

End:1x
went out every Friday night I still do and I'm alright. 
G:-------------------------------------------------------------------------
D:-------------------------------------------------------------------------
A:------------4-4-4444--22222222-44444444----------------------------------
E:--2-2-2222----------------------------2(let ring)---2(mute immediately)--

Congratulations, u can now play a fun and EASY song. Play along with the Cd and
jump and aorund have a good time. If you want you can make your bass sound more
like Mike's(MxPx's bassist) by turning the tone up and playing back by the bridge.
Later,
Nate
Comments