Mxpx - Do Your Feet Hurt Chords & Tabs

 

Do Your Feet Hurt Chords & Tabs

Mxpx Chords & Tabs

Version: 2 Type: Bass Tab 0 ratings
1 star 2 stars 3 stars 4 stars 5 stars
comments

Do Your Feet Hurt Bass Tab

Song: Do Your Feet Hurt
Artist: MxPx
Album: Life In General
Tabbed By: Kyle Kensrue
E-Mail: dougk@intellistar.net


Fill In 1
g-----------------------------------
d-----------------------------------
a-1-0---0-1-3-1-0-------------------
e-----3-----------1-----------------

Fill In 2
g-----------------------------------
d-----------------------------------
a-1-0---0-1-3-1-0-------------------
e-----3-----------------------------

Fill In 3
g-----------------------------------
d-----------------------------------
a-1-0---0-1-3-1-0--3----------------
e-----3-----------------------------

Verse Riff A
g-----------------------------------
d-----------------------------------
a------------5555555555-------------
e-5555555555------------------------

Verse Riff B
g-----------------------------------
d-----------------------------------
a----------------------5555555555---
e-1111111111-555555555--------------

Chorus
g--------------------------------------
d--------------------------------------
a-3333333333-1111111111------------5-3-
e-----------------------5555555555-----
[ Tab from: http://www.guitartabs.cc/tabs/m/mxpx/do_your_feet_hurt_btab_ver_2.html ]
g----------------------------------------
d----------------------------------------
a-1111111111-3333333333------------11-33-
e-----------------------5555555555-------

Verse Riff C
g-----------------------------------
d-----------------------------------
a--------------5555555555-----------
e-1-5555555555----------------------

Bridge Riff A
g-----------------------------------
d-----------------------------------
a----------55555555----------11-33--
e-11111111----------33333333--------

Bridge Riff B
g--------------------------------------------------------------------------------
d--------------------------------------------------------------------------------
a-111111111111-333333333333--------------555555555555-111111111111-333333333333--
e---------------------------111111111111-----------------------------------------

Bridge Riff C
g-----------------------------------------------
d-----------------------------------------------
a--------------555555555555--------------11-33--
e-111111111111--------------555555555555--------

End On 
g----
d----
a----
e-1--

Order Of Playing:
Fill In 1		Fill In 2		Fill In 2
Verse Riff A		Verse Riff B		Bridge Riff C (2x)
Fill In 2		Fill In 3		End
Verse Riff B		Verse Riff B
Fill In 3		Fill In 2
Verse Riff B		Verse Riff B
Fill In 2		Fill In 2
Verse Riff B		Chorus
Fill In 2		Bridge Riff A (2x)
Chorus			Bridge Riff B
Verse Riff C		Verse Riff B

Comments