Mxpx - Cristalena Chords & Tabs

 

Cristalena Chords & Tabs

Mxpx Chords & Tabs

Version: 2 Type: Bass Tab 0 ratings
1 star 2 stars 3 stars 4 stars 5 stars
comments

Cristalena Bass Tab

   
***Cristalena***
by MxPx 
from the album Life in General
tabbed by ally      standard tuning (EADG)

Intro: 
e:-3- at the very beginning and then rest throughout the guitar's intro.
at the end it is just:
a:-33333333-

Chorus "but you know and i know cristalena" x2
g:-------------------------------------------------------------------------------
d:-------------------------------------------------------------------------------
a:----------33333333----------5555-3333------------------------------------------
e:-33333333----------33333333----------------------------------------------------
[ Tab from: http://www.guitartabs.cc/tabs/m/mxpx/cristalena_btab_ver_2.html ]
Verse "Cristalena she's in her own world"
g:-------------------------------------------------------------------------------
d:-------------------------------------------------------------------------------
a:----------33333333----------5555-3333----------333333333----------55555555-----
e:-33333333----------33333333-----------00000000-----------00000000--------------

Bridge "Cristalena where'd you go" x2
g:-------------------------------------------------------------------------------
d:-------------------------------------------------------------------------------
a:----------33333333----------55555555-------------------------------------------
e:-00000000----------33333333----------------------------------------------------

Outro:
g:---------------------0-----------0-0------------------------------------------
d:---------2-0---0---------------0-----4-4-3-3-2-2-1-1-0-0----------------------
a:---2---2-----3---0-3---2-0-2-3---------------------------3-3-2-2--------------
e:-3---3-----------------------------------------------------------3------------

any questions, comments or corrections send to agilbert41@aol.com. cheers guys enjoy
        ÅlL  hÀÏL  þÚñK  & Ît‘§ m!nÏØN§!!!!!!!!!! ©
Comments