Mxpx - Chick Magnet Chords & Tabs

 

Chick Magnet Chords & Tabs

Mxpx Chords & Tabs

Version: 2 Type: Bass Tab 0 ratings
1 star 2 stars 3 stars 4 stars 5 stars
comments

Chick Magnet Bass Tab

Band:Mxpx
Song:Chick Magnet
Tab by:p_predictable_ae@hotmail.com
Insrument:Bass

This tab should be 100% correct.  At least more correct than the other versions out there.

Verse goes like this.
G-------------------------------------
D-------------------------------------
A--2h3-2-0---------------------------
E-----------3-2h1-0-1-3--------------

Interlude goes like this.
G--------------0-0--------------------
D------0-0-2-2------------------------
A--3-3--------------------------------
E------------------1-0-1-3------------
[ Tab from: http://www.guitartabs.cc/tabs/m/mxpx/chick_magnet_btab_ver_2.html ]
Chorus goes like this.
G--------------------------------------
D--------------------------------------
A---------------------------------3----
E--5-5-5-5-5-5-5-5-1-1-1-1-1-1-1-1--3--

It goes like that for three times then like this the fourth time.
G-----------------------------------
D-----------------------------------
A-----------------------------------
E--5-5-5-5-5-5-5-5-3-3-3-3-3-3-3-3

That's  basically it.  You can pick up the order easily enough by listening to the recording.
Email me with any corrections or what you think of the tab.
Comments