Mxpx - Blood And Guts Chords & Tabs

 

Blood And Guts Chords & Tabs

Mxpx Chords & Tabs

Version: 1 Type: Bass Tab 0 ratings
1 star 2 stars 3 stars 4 stars 5 stars
comments

Blood And Guts Bass Tab

Song: Blood and Guts
Artist: MxPx
Album: The Broken Bones
Tabbed By: Paul Assaad (pxpx47@hotmail.com)

Here’s one for ya. Hope you like it.


Intro & Finale                            (1)
G|----------------------------------------
D|--2>--0>--------------------------------
A|----------4>--0>-----0--2---------------
E|------------------4--------0------------


Verse                                     (2)
G|----------------------------------------
D|--2>--------------2>--------------------
A|------0>--4>--2>------------------------
E|----------------------------------------

[ Tab from: http://www.guitartabs.cc/tabs/m/mxpx/blood_and_guts_btab.html ]
Prechorus                                 (3)
G|----------------------------------------
D|----------------------------------------
A|--0>--2>------4>--2>--0>--2>------------
E|----------0>------------------0---------


Bridge                                    (4)
G|----------------------------------------
D|----------------------------------------
A|--22------------------------------------
E|----------------------------------------


Chorus                                    (5)
G|----------------------------------------
D|--—-------------------------------------
A|--2-2----------4--4-4--0--0-0--2--------
E|-------0--0-0---------------------------


Order: (1), (1), (2), (3), (4), (5), (5), (1), (1).
">" indicates strumming OR repeated playing.

Comments