Mxpx - Begin To Start Chords & Tabs

 

Begin To Start Chords & Tabs

Mxpx Chords & Tabs

Version: 2 Type: Tab 0 ratings
1 star 2 stars 3 stars 4 stars 5 stars
comments

Begin To Start Tab

			     Begin To Start - MXPX(Magnified Plaid)

Tabbed by:NOFXMIKE	
Email:someone028@excite.com
Tuning:Standard
album:let it happen(1998)originally on the double 10

 guitar effects: most likely a flanger

They say to me don't be hangin' on. If you won't go on do I want to?
e|---------------------------------------------------------------------|
B|--9------------------------------------------------------------------|
G|--9--------------------8----------6-----------------8----------------|
D|--9--------------------9----------7-----------------9----------------|
A|--7--------------------9----------7-----------------9----------------|
E|--0--------------------7----------5-----------------7----------------|

Pray to see--   Pray to know  Provide for me-- you won't let it go
e|-------------------------------------------------------------------|
B|--9-----9-----------9-----------------------------------------9----|
G|--9---9---9--8----8---8-----6------6-------------------8---8-----8-|
D|--9-9--------9--9-----------7---7-----7----------------9-9---------|
A|--7----------9--------------7--------------------------9-----------|
E|--0----------7--------------5--------------------------7-----------|


Bridge:(4th time only play at half time tempo)


      (echo)      Life    confuses      me
    Life confuses me--    can't find my way   
e|--------------------------------------------------------------------|
B|---------------------------------------9--10-10-9-9-9-10-10-9-9-9-10|
G|--6-6--6-6--6-6--6-6--8-8--8-8--8-8--8-9--9-----------9-----------9-|
D|--7-7--7-7--7-7--7-7--9-9--9-9--9-9--9-9----------------------------|
A|--7-7--7-7--7-7--7-7--9-9--9-9--9-9--9-7----------------------------|
E|--5-5--5-5--5-5--5-5--7-7--7-7--7-7--7-0----------------------------|
           ^         ^         ^         ^        ^           ^ 
                              (echo)rather stay           
     out of here I think i'd rather stay-----ay
e|-------------------------------------------|
b|-------------------------------------------|
g|-- 8-8--8-9--8-8--8-9--8-8--8-9--6--------8|
D|-- 9-9--9-9--9-9--9-9--9-9--9-9--7--------9|
A|-- 9-9--9-9--9-9--9-9--9-9--9-9--7--------9|
E|-- 7-7--7-7--7-7--7-7--7-7--7-7--5--------7|
            ^         ^         ^
               I think I'd rather stay
e|-----------------------------------------------------------------|
B|------------9------------9-------9--9--10-10-9-9-9-10-10-9-9-9-10|
G|------8-8-8--(8)---8-8-8---8-8-8----9--9-----------9-----------9-|
D|-------------(9)--------------------9----------------------------|
A|-------------(9)--------------------7----------------------------|
E|-------------(7)--------------------0----------------------------|
              ^            ^       ^           ^           ^
e|-----------------------|
b|-----------------------|
g|-- 8-8--8-9--8-8--8-9--|
D|-- 9-9--9-9--9-9--9-9--|
A|-- 9-9--9-9--9-9--9-9--|
E|-- 7-7--7-7--7-7--7-7--|( 2nd time --go to solo)
            ^         ^         ^
[ Tab from: http://www.guitartabs.cc/tabs/m/mxpx/begin_to_start_tab_ver_2.html ]
Chorus:
When do I--begin to start; begin to let you into my heart?
e|--------------------------------------------------------------------|
B|-9------------------------------------------------------------------|
G|-9-------8-----------------6-----------------------8----------------|
D|-9-------9-----------------7-----------------------9----------------|
A|-7-------9-----------------7-----------------------9----------------|
E|-0-------7-----------------5-----------------------7----------------|

What goes on--when I look at you? 'cuz by the way I know I feel it too(to bridge)
e|-------------------------------------------------------------------|
B|--9-----9-----------9-----------------------------------------9----|
G|--9---9---9--8----8---8-----6------6-------------------8---8-----8-|
D|--9-9--------9--9-----------7---7-----7----------------9-9---------|
A|--7----------9--------------7--------------------------9-----------|
E|--0----------7--------------5--------------------------7-----------|

solo:guitar#1(w/gradual pick slides downward)
palm muted throughout
e|------------------------------------------------------------------------|
B|------------------------------------------------------------------------|
G|----9-9-9-------9-9-9------8-8-9-----------------------------2-2-2------|
D|----9-9-9-9-9-9-9-9-9-9-9-9-----9-9-9-------9-9-9------7-7-9-2-2-2-2-2-2|
A|----------7-7-7-------7-7-7-----9-9-9-9-9-9-9-9-9-9-9-9------------0-0-0|
E|--------------------------------------7-7-7-------7-7-7-----------------|

e|------------------------------------------------------------------|
B|------------------------------------------------------------------|
G|---2-2-2------2-2-4-4-4-4-------4-4-4------2-2-4------------------|
D|---2-2-2-2-2-2------4-4-4-4-4-4-4-4-4-4-4-4-----------------------|
A|---------0-0-0------------2-2-2-------2-2-2-----------------------|
E|------------------------------------------------------------------|

solo:guitar#2
+  harmonics repeat throughout
e|---------------7-7-7-7-7-7--------------7-7-7-7-7-7-----------5-5-5-5-5-5|
B|---7-7-7-7-7-7-------------7-7-7-7-7-7-------------7-7-7-7-7-7-----------|
G|-------------------------------------------------------------------------|
D|-------------------------------------------------------------------------|
A|-------------------------------------------------------------------------|
E|-------------------------------------------------------------------------|
Last Chorus after solo:

When do I--     begin to start;    begin to let you into my heart?
e|--------------------------------------------------------------------------|
B|-9--9-9-9-9-9-9--9--------------------------------------------------------|
G|-9--9-9-9-9-9-9--9--8-8-8-8-8-8--8--6-6-6-6-6-6--6--8-8-8-8-8-8-----------|
D|-9--9-9-9-9-9-9--9--9-9-9-9-9-9--9--7-7-7-7-7-7--7--9-9-9-9-9-9-----------|
A|-7--7-7-7-7-7-7--9--9-9-9-9-9-9--9--7-7-7-7-7-7--7--9-9-9-9-9-9-----------|
E|-0--0-0-0-0-0-0--7--7-7-7-7-7-7--7--5-5-5-5-5-5--5--7-7-7-7-7-7-----------|
      ^         ^     ^         ^     ^         ^     ^         ^

  They say to me don't be hangin' on. If you won't go on do I want to?
e|--------------------------------------------------------------------------|
B|-9--9-9-9-9-9-9--9--------------------------------------------------------|
G|-9--9-9-9-9-9-9--9--8-8-8-8-8-8--8--6-6-6-6-6-6--6--8-8-8-8-8-8-----------|
D|-9--9-9-9-9-9-9--9--9-9-9-9-9-9--9--7-7-7-7-7-7--7--9-9-9-9-9-9-----------|
A|-7--7-7-7-7-7-7--9--9-9-9-9-9-9--9--7-7-7-7-7-7--7--9-9-9-9-9-9-----------|
E|-0--0-0-0-0-0-0--7--7-7-7-7-7-7--7--5-5-5-5-5-5--5--7-7-7-7-7-7-----------|
      ^         ^     ^         ^     ^         ^     ^         ^
now to go bridge

song structure:
intro verse
bridge
chorus
bridge
solo
chorus
bridge
bridge(half tempo)
Comments