Mxpx - Begin To Start Chords & Tabs

 

Begin To Start Chords & Tabs

Mxpx Chords & Tabs

Version: 1 Type: Tab 0 ratings
1 star 2 stars 3 stars 4 stars 5 stars
comments

Begin To Start Tab

   
-------------------------------------------------------------------------------
			     Begin To Start - MXPX(Magnified Plaid)
-------------------------------------------------------------------------------
Tabbed by:NOFXMIKE06	
Email:none
Tuning:Standard
[ Tab from: http://www.guitartabs.cc/tabs/m/mxpx/begin_to_start_tab.html ]
They say to me don't be hangin' on. If you won't go on do I want to?
e|---------------------------------------------------------------------|
B|--9------------------------------------------------------------------|
G|--9--------------------8----------6-----------------8----------------|
D|--9--------------------9----------7-----------------9----------------|
A|--7--------------------9----------7-----------------9----------------|
E|--0--------------------7----------5-----------------7----------------|
Pray to see--Pray to know  Provide for me-- you won't let it go
e|----------------------------------------------------------------------|
B|--9-------------------------------------------------------------------|
G|--9---------8-------------6--------------------------8----------------|
D|--9---------9-------------7--------------------------9----------------|
A|--7---------9-------------7--------------------------9----------------|
E|--0---------7-------------5--------------------------7----------------|
Bridge:
fill #1 played after("...can't find my way")--also played as ending riff
e|---------------------------------------------------------------------------
B|--------------9--------------------9---------------------------------------
G|---------8--------8-----------8---------8----------------------------------
D|---------------------------------------------------------------------------
A|----7-------------------7--------------------------------------------------
E|---------------------------------------------------------------------------
Life confuses me--can't find my way    Out of here I think I'd rather stay
e|---------------------------------------------------------------------------
B|--------------------------------9------------------------------------------
G|--6----------8------------------9-----8-----------------------6----------8|
D|--7----------9------------------9-----9-----------------------7----------9|
A|--7----------9------------------7-----9-----------------------7----------9|
E|--5----------7------------------0-----7-----------------------5----------7|
I think I'd rather stay
e|--------------------------------------------------------------------------|
B|--------9-----------------------------------------------------------------|
G|--------9-----------------------------------------------------------------|
D|--------9-----------------------------------------------------------------|
A|--------7-----------------------------------------------------------------|
E|--------0-----------------------------------------------------------------|
Chorus:
When do I--begin to start; begin to let you into my heart?
e|---------------------------------------------------------------------|
B|-9------------------------------------------------------------------|
G|-9-------8-----------------6-----------------------8----------------|
D|-9-------9-----------------7-----------------------9-------------------|
A|-7-------9-----------------7-----------------------9--------------------|
E|-0-------7-----------------5-----------------------7------------------|
What goes on--when I look at you? And by the way I know I feel it too
e|---------------------------------------------------------------------------
B|-9----------------------------------------------------------------------|
G|-9----------8------------------------6--------------------8--------------|
D|-9----------9------------------------7--------------------9-------------|
A|-7----------9------------------------7--------------------9-------------|
E|-0----------7------------------------5--------------------7-------------|
solo:guitar#1
palm muted throughout
e|------------------------------------------------------------------------|
B|------------------------------------------------------------------------|
G|----9-9-9-------9-9-9------8-8-9-----------------------------2-2-2------|
D|----9-9-9-9-9-9-9-9-9-9-9-9-----9-9-9-------9-9-9------7-7-9-2-2-2-2-2-2|
A|----------7-7-7-------7-7-7-----9-9-9-9-9-9-9-9-9-9-9-9------------0-0-0|
E|--------------------------------------7-7-7-------7-7-7-----------------|

e|------------------------------------------------------------------|
B|------------------------------------------------------------------|
G|---2-2-2------2-2-4-4-4-4-------4-4-4------2-2-4------------------|
D|---2-2-2-2-2-2------4-4-4-4-4-4-4-4-4-4-4-4-----------------------|
A|---------0-0-0------------2-2-2-------2-2-2-----------------------|
E|------------------------------------------------------------------|
solo:guitar#2
+  harmonics repeat throughout
e|---------------7-7-7-7-7-7--------------7-7-7-7-7-7-----------5-5-5-5-5-5|
B|---7-7-7-7-7-7-------------7-7-7-7-7-7-------------7-7-7-7-7-7-----------|
G|-------------------------------------------------------------------------|
D|-------------------------------------------------------------------------|
A|-------------------------------------------------------------------------|
E|-------------------------------------------------------------------------|
| /  slide up
| \  slide down
| h  hammer-on
| p  pull-off
| ~  vibrato
| +  harmonic
| x  Mute note
Comments