Mxpx - Barbie Girl Chords & Tabs

 

Barbie Girl Chords & Tabs

Mxpx Chords & Tabs

Version: 3 Type: Tab 0 ratings
1 star 2 stars 3 stars 4 stars 5 stars
comments

Barbie Girl Tab

Artist: MXPX
Song Title: Barbie Girl
Standard tining

This is a great song by a great band. The other version was a little incomplete
and wrong, but I did get help from that tab so many thanks. This version may
seem a bit off at first, but if you listen closely you'll hear it.

*=Palm Mute

Intro:
 
e--------------------------->
b--------------------------->
g--------------------------->
d--8~~~--4~~~--6~~~--11~~~--> 
a--8~~~--4~~~--6~~~--11~~~-->
E--6~~~--2~~~--4~~~--9~~~--->

e---------------------------->
b---------------------------->
g---------------------------->
d--8~~~--4~~~--11~~~--13~~~-->
a--8~~~--4~~~--11~~~--13~~~-->
E--6~~~--2~~~--9~~~---11~~~-->

Chorus:
 
e------------------------------------------>
b------------------------------------------>
g------------------------------------------>
d--8-8-8-8--4-4-4-4--6-6-6-6--11-11-11-11--> 
a--8-8-8-8--4-4-4-4--6-6-6-6--11-11-11-11-->
E--6-6-6-6--2-2-2-2--4-4-4-4--9--9--9--9--->

e---------------------------------------------->
b---------------------------------------------->
g---------------------------------------------->
d--8-8-8-8--4-4-4-4--11-11-11-11--13-13-13-13-->
a--8-8-8-8--4-4-4-4--11-11-11-11--13-13-13-13-->
E--6-6-6-6--2-2-2-2--9--9--9--9---11-11-11-11-->

Pre chorus:
[ Tab from: http://www.guitartabs.cc/tabs/m/mxpx/barbie_girl_tab_ver_3.html ]
e--------------------------->
b--------------------------->
g--------------------------->
d--8-8-8-8-8-8-8-8-8-8-8-8--> x3
a--8-8-8-8-8-8-8-8-8-8-8-8-->
E--6-6-6-6-6-6-6-6-6-6-6-6-->

e------------------------------------------------>
b------------------------------------------------>
g------------------------------------------------>
d--8-8-8-8-8-8-8-8-8-8-8-8--6-4-3--6-4-3--6-4-3-->
a--8-8-8-8-8-8-8-8-8-8-8-8----------------------->
E--6-6-6-6-6-6-6-6-6-6-6-6----------------------->

Verse:

e-------------------------------------------->
b-------------------------------------------->
g-------------------------------------------->
d--8~~~--4~~~--6~~~--11-11-11--11~~~--10~~~-->
a--8~~~--4~~~--6~~~--11-11-11--11~~~--10~~~-->
E--6~~~--2~~~--4~~~--9--9--9---9~~~~---8~~~-->
                     *  *  *

e-------------------------------------------------------->
b-------------------------------------------------------->
g-------------------------------------------------------->
d--8-8-8-8--4-4-4-4--6-6-6-6--11-11-11-11--10-10-10-10--->
a--8-8-8-8--4-4-4-4--6-6-6-6--11-11-11-11--10-10-10-10--->
E--6-6-6-6--2-2-2-2--4-4-4-4--9--9--9--9---8--8--8--8---->
   * * * *  * * * *  * * * *  *  *  *  *   *  *  *  *


End
e------------------------>
b------------------------>
g------------------------>
d-8-8-8-8-8-8--4-4--11--8-->
a-8-8-8-8-8-8--4-4--11--8-->
E-6-6-6-6-6-6--2-2--9---6-->

Song Layout:
Intro: (x3)
Chorus: (x2)
Verse: (x1)
Pre Chorus: (x1)
Chorus: (x4)
End: (x1)
Comments