Mxpx - Barbie Girl Chords & Tabs

 

Barbie Girl Chords & Tabs

Mxpx Chords & Tabs

Version: 1 Type: Bass Tab 0 ratings
1 star 2 stars 3 stars 4 stars 5 stars
comments

Barbie Girl Bass Tab

Artist: MXPX
Song Title: Barbie Girl
Standard tuneing
Tabb BY: Daniel "Arnni" Greenwood
Comments: This is My second tab i play Bass and Lead Guitar.So i thought i submit
this song. I'm Not sure if this is completly Rite its how i play it with my
bassit in my band (Locker42). If it's Not Right i would like to know how it is
played :) Also i Play the Version 2 barbie girl on the guitar. (This bass tab
goes wid Version 2 of barbie girl)

\m/ Rock On \m/
--------------------------

~ = Let Note ring

Intro: (Let Each Not ring)
G|---------------------------------------------------------------------------|
D|---------------------------------------------------------------------------|
A|---------------------------------------------------------------------------|
E|---6~~~--2~~~--4~~~--9~~---------6~~~--2~~~--4~~~--9~~~--11~~~-------------|


Chorus: (Fast Strumes)
G|---------------------------------------------------------------------------|
D|---------------------------------------------------------------------------|
A|---------------------------------------------------------------------------|
E|---6-6-6-6--2-2-2-2--4-4-4-4--9--9--9--9-----------------------------------|
[ Tab from: http://www.guitartabs.cc/tabs/m/mxpx/barbie_girl_btab.html ]
G|---------------------------------------------------------------------------|
D|---------------------------------------------------------------------------|
A|---------------------------------------------------------------------------|
E|---6-6-6-6--2-2-2-2--9--9--9--9--11-11-11-11-------------------------------|

Pre Chorus:
G|---------------------------------------------------------------------------|
D|---------------------------------------------------------------------------|
A|---------------------------------------------------------------------------|
E|--6-6-6-6-6-6-6-6-6-6-6-6--6-6-6-6-6-6-6-6-6-6-6-6-6-----------------------|

Verse 1 (Let each Not ring)
G|---------------------------------------------------------------------------|
D|---------------------------------------------------------------------------|
A|---------------------------------------------------------------------------|
E|--6~~~--2~~~--4~~~--9--9--9---9~~~~---8~~~---------------------------------|

(fast stumes)
G|---------------------------------------------------------------------------|
D|---------------------------------------------------------------------------|
A|---------------------------------------------------------------------------|
E|--6-6-6-6--2-2-2-2--4-4-4-4--9--9--9--9---8--8--8--8-----------------------|

Thats about it! great Song for a laugh and fun :)
Catch My next Tab soon ;)

Song Layout:
Intro: (x3)
Chorus: (x2)
Verse: (x1)
Pre Chorus: (x1)
Chorus: (x4)
End: (x1)
Comments