Mxpx - Andrea Chords & Tabs

 

Andrea Chords & Tabs

Mxpx Chords & Tabs

Version: 1 Type: Bass Tab 0 ratings
1 star 2 stars 3 stars 4 stars 5 stars
comments

Andrea Bass Tab

                                   Andrea

By: MxPx

Tabbed By: MxPx58

Play 2 times.

Riff 1

----------------------------------------------------------------------------
----------------------------------------------------------------------------
---3-3--3--3-3--3--3-3--3--3-3------------------------------------------2---
----------------------------------------1--3-3--3--3-3--3--3-3--3--3-3------

Play 2 times.

Riff 3

----------------------------------------------------------------------------
----------------------------------------------------------------------------
3-3-3-3-3-3-3-3-3-3-3-3-3-3-3-3-3-----------------------------------------2-
---------------------------------------1-3-3-3-3-3-3-3-3-3-3-3-3-3-3-3-3-3--

Play 2 times.

Riff 3

----------------------------------------------------------------------------
----------------------------------------------------------------------------
----------------------------------------------------------------------------
-------------1-1-1-1-1-1-1-1-3-3-3-3-3-3-3-3--------------------------------

Play once, directly after RIFF 3.

RIFF 4
[ Tab from: http://www.guitartabs.cc/tabs/m/mxpx/andrea_btab.html ]
--------------------------------------------------------------------
--------------------------------------------------------------------
-----------------------------------------------------------------2--
1-1-1-1-1-1-1-1-1-1-1-1-1-1-1-1-3-3-3-3-3-3-3-3-3-3-3-3-3-3-3-------

______________________________________________________

Play top half one more time.
After you play that play RIFF 1 one more time.
Then play this.

THE 5,3,1 ALL PLAY FOR 18 TIMES, PLAY 2 TIMES.
ON THE SECOND TIME DON'T SLIDE UP TO 15, INSTEAD
PLAY THE LAST SET OF THREES 18 TIMES.     RIFF 5

-----------------------------------------------------------------------
-----------------------------------------------------------------------
-----------------------------------------------------------------------
55555555555555555533333333333333333311111111111111111133333333/151515--

PLAY RIFF ONE ONE MORE TIME, THEN PLAY RIFF 5 ONE MORE TIME WITH OUT SLIDING
UP TO 15. AT THE END OF PLAYINNG RIFF 5 AGAIN, END WITH A 3 ON "A" STRING.
YOU WANT TO LET IT RING, THEN PLAY THREE AGAIN, ONLY THIS TIME MAKE IT A
SHORT NOTE.

QUESTIONS OR COMMENTS ?


EMAIL ME AT MxPx58@aol.com


Comments