Muzic Warehouz - Egg Song Chords & Tabs

 

Egg Song Chords & Tabs

Muzic Warehouz Chords & Tabs

Version: 1 Type: Tab 0 ratings
1 star 2 stars 3 stars 4 stars 5 stars
comments

Egg Song Tab

   
bulls_on_parade.tab



A:link {
	COLOR: black; FONT-WEIGHT: bold; TEXT-DECORATION: none
}
A:active {
	COLOR: black; FONT-WEIGHT: bold; TEXT-DECORATION: none
}
A:visited {
	COLOR: black; FONT-WEIGHT: bold; TEXT-DECORATION: none
}
A:hover {
	COLOR: black; FONT-WEIGHT: bold; TEXT-DECORATION: underline
}


Date: Sun, 19 Apr 2003 00:18:31 - 01:41:55
From: JARRT@yahoo.com
Subject: TAB:(Kwek-Kwek-Kikiam Song)


(Kwek-Kwek-Kikiam Song)
 mUsIC hArDwarE 
 from:self-titled album
 written by CAPT Turk
 lyrics by gel
 tabbed by gel(w/band)

	hi yah hard lovin fans of somethin weird music topped with cool sounds and 
extraterestial ideas... well here's the song for ya! Kwek-Kwek-Kikiam Song is totally
composed for ya crazy guys out there so keep on checkin on our songs esp OUR album 
soon to be released 10 yrs from now. TC always guys! head strong!!!! kip rockin!
WASSSuUUp teD!!!! musta na ung bigasan natin dyan JOE!!!!hEheHeh painOM KaNa!!!

~ = let ring
b = bend
h = hammer
^ = harmonic
x = dead
/ = slide

INTRO : 

BAsS LINE 

G||-----------------------------------------------------|
D||-----------------------------------------------------|
A||--------3-5---5-5---3-3------------5--353------------|
E||-3---3-5-----------------5----3---3------------------|

stanza : (riff 1) 

G||-----------------------------------------------------|
D||----------------------3---3-5------------------------| 3x
A||------------3---3-5/7---------5---5-5----------------|
E||-3---3--5/7------------------------------------------|

then 

G||-------------------x-x-------------------------------|
D||-------------3h4---x-x-------------------------------|
A||----------------5--x-x----3-5------------------------|
E||-0303030305--------x-x--5----------------------------|


chorus : (riff 2)

G||-------------------------------------------------------------|
D||--------3-5---5-5---3-3--------------------------------------| 3X 
A||-3---3-5-----------------5-----------------------------------|
E||----------------------------3---3-3---2-2---0--00-00-00-00---|


then

G||-------------------------------------------------------------|
D||---------3-5--3-5--3-----------------------------------------| 
A||-3---3-5-------------5-3------353----------------------------| 
E||--------------------------5-5------5-------------------------| 

LEAD 
stanza : (riff 1)

e||------------------------8~--8-8h7----------------------------|
B||--------------8~-8-8H10-----------8--8-8--8------------------| 3X
G||---7---7-7h9---------------------------------7---------------|
D||-------------------------------------------------------------|
A||-------------------------------------------------------------|
E||-------------------------------------------------------------|

then
	1/2    1/2    1/2    1/2
e||-------------------------------------------------------------|
B||-------------------------------------------------------------|
G||---7-7b---7-7b---7-7b---7-9b-9-------------------------------|
D||-------------------------------------------------------------|
A||-------------------------------------------------------------|
E||-------------------------------------------------------------|
[ Tab from: http://www.guitartabs.cc/tabs/m/muzic_warehouz/egg_song_tab.html ]
chorus : (riff 2)
      
      1/2		 1/2	    1/2	            1/2    1/2	    1/2            
e||-------------------------------------------------------------------------------------------------|
B||-------------------------------------------------------------------------------------------------|
G||---9b--9--9-9---11-11-11b--11-11-11b--11--11---7-7b-7---6b-6-6---4b---4-4-4-4-4-4-4--------------| 3X
D||-------------------------------------------------------------------------------------------------|
A||-------------------------------------------------------------------------------------------------|
E||-------------------------------------------------------------------------------------------------|

then

      1/2		  1/2        1/2          1/2     1/2
e||-------------------------------------------------------------------------------------------------|
B||-------------------------------------------------------------------------------------------------|
G||---9b--9--9-9----11-11-11b--11-11-11b--11-11---6b-6-6--5b-5-5----12^-----------------------------|
D||-------------------------------------------------------------------------------------------------|
A||-------------------------------------------------------------------------------------------------|
E||-------------------------------------------------------------------------------------------------|



the half-CompLEted SOng

title : Kwek-Kwek-Kikiam Song

chords:

G	355433
A	577655
C	x35553
D	x57775
  
LyRiCs:

verse 1

G	A        C        D
Narito na tatambay ang barkada
G           A          C        D
Hawak ang gitara't biglang kakanta
G	    A	     C		D
Hindi nagsasawa't laging may tuwa
G			   A(break)
KahiT nagmumukha kaming tanga

verse 2

G	  A	     C      D
Hindi alintana kung may makakita
G	      A      C           D
Tugtog ng tugtog at kanta ng kanta
G            A           C           D
Walang pakialam basta't tuloy ang saya
G                          A(break)
Ano nga ba ang pakialam nila


Chorus
C		  D  G    F#m  Em
Ngayon ay nandito na ang aming grupo
C            D  G       F#m   Em
Aawit tutugtog ng kung anu-ano
C         D     G          F#m   Em 
At kung sakali mang mainggit kayo
C	      D  Am         C         G(break)
Bahala na kayong magpaitlog ng itlog nyo!

verse 3

G          A         C         D
Lilipas ang oras ng 'di napapansin
G               A           C       D
Kahit na kay dilim nagkakantahan parin
G          A              C       D
Kahit nababadtrip nagtatawanan parin
G			   A(break)
Pero lahat kami'y hindi baliw


	THAt"S AlL FoR NOW folks! coda and the last part of the song is still on the making
and progress is in high percentage.. watch out for it kei! tc always

Band members

(Bass/Vocals/Guitars/Lead) Angelo "The Dolphin" Peralta
(BAss/Guitars/Lead)        CAPT Turk
(RhytHm)		         Dj Ted
(Vocals daw)	         Mighty "JOE" YouNG
(Effects)                  The ugly "Duck"ling 
Comments