Mutabor - Das Glas Ist Leer Chords & Tabs

 

Das Glas Ist Leer Chords & Tabs

Mutabor Chords & Tabs

Version: 1 Type: Bass Tab 0 ratings
1 star 2 stars 3 stars 4 stars 5 stars
comments

Das Glas Ist Leer Bass Tab

Mutabor  -  Das Glas ist leer


h =  hammering on

Basstabs das ganzen Stück (außer dem Solo --> das konnte ich noch nich so genau raus hören):

G----------------------------------------------------------------------------|
D----------------------------------------------------------------------------|
A--------0------------0----3---------3----2---------2--3--2--0—h2------------|
E------------------------------------------------------------------3---------|

G----------------------------------------------------------------------------|
D----------------------------------------------------------------------------|
A-------0-------------0---3---------3----2----------------------3--2---------|
E---------------------------------------------------------------------3------|

...und wieder von vorn (das ganze schöne Lied lang)

Text:

[ Tab from: http://www.guitartabs.cc/tabs/m/mutabor/das_glas_ist_leer_btab.html ]
Das Glas ist leer, das Licht ist aus
Gleich schmeißt der Wirt mich wieder raus
Er wird nur traurig schnaufen, wenn er mich zu Türe schleift
Das Glas ist leer, das Licht ist aus


Ich werde wieder durch die dunklen Straßen geh'n
Und in den Sternen alte Bilder seh'n
Nur wenn ich besoffen bin, bin ich eins mit dieser Welt
Und manchmal gar ein Märchenheld


Einst war ich noch ein Gaukler morgenschön
Ich konnt' mich an den Leuten wohlergeh'n
Ich trug ein rotes Stirneband und war ein Don Quichotte
Doch heute trifft mich nur der Spott


Ja diese Zeit ist wohl vorbei
Und ich will nicht denken an Vergangenheit
Irgendwann werd' ich es schaffen, ich verlasse diese Zeit
Und find' sie wieder, meine Herrlichkeit
Meine Herrlichkeit.

Ich spiele diese Basstabs immer mit meiner Akustikgitarre --> klingt auch sehr gut
Wenn's Fragen gibt: NeroAndRobin@aol.com
Comments