Mustard Plug - Too Stoopid Chords & Tabs

 

Too Stoopid Chords & Tabs

Mustard Plug Chords & Tabs

Version: 1 Type: Bass Tab 0 ratings
1 star 2 stars 3 stars 4 stars 5 stars
comments

Too Stoopid Bass Tab

              -=-=-=-=-=- Too Stoopid -=-=-=-=-=-
      by Mustard Plug from the album "Big Daddy Multitude"
            Tabbed by Dave Miller (dwm3@po.cwru.edu)

-=-=-=-=-=-=-=-=-=-=-=-=-=-=-=-=-=-=-=-=-=-=-=-=-=-=-=-=-=-=-=-=-=-=-=-=-=-=-=-
   Some great ska from a great live band.  Pretty simple bass
   that just sounds awesome!.

   Choose from over 1800 more tabs at the Bass Tab Archive at:

         http://www.basstabarchive.com
   
   If you have any submissions for the archive, feel free to mail them to
   me at dwm3@po.cwru.edu.

   Enjoy!                                                                                   
-=-=-=-=-=-=-=-=-=-=-=-=-=-=-=-=-=-=-=-=-=-=-=-=-=-=-=-=-=-=-=-=-=-=-=-=-=-=-=-

  Intro
[ Tab from: http://www.guitartabs.cc/tabs/m/mustard_plug/too_stoopid_btab.html ]
||-----------------------------------------------------------
||*----------------------------------------------------------
||*------------5---------------------------5-----------------
||---5----3----------------------5----3----------------------                                                                               

     Here we go again...      ...all together now...


  Verse
                                                                                
||-----------------------------------------------------------
||*----------------------------------------------------------
||*----------------5-5-5-5-----------------------------------
||---5--5---3--3---------------------------------------------
                                                                               
     The first time I saw you...  


  Chorus
                                                                                
||-----------------------------------------------------------
||*--------7p5h7-7-7-7-------7-8-10-10-10-8------------------
||*--5-5-5-------------8-8-8----------------10---------------
||-----------------------------------------------------------

     I wanna love you but you're too damn stupid...

Comments