Mustard Plug - Throw A Bomb Chords & Tabs

 

Throw A Bomb Chords & Tabs

Mustard Plug Chords & Tabs

Version: 1 Type: Tab 0 ratings
1 star 2 stars 3 stars 4 stars 5 stars
comments

Throw A Bomb Tab

*Intro/first part of verse (wait for drums to come in on bass solo)
E-------------------------------------------
B-------------------------------------------
G-------------------------------------------
D-x-x-7--x-x-7--x-x-7---5-5-5---------------
A-x-x-7--x-x-7--x-x-7---5-5-5---------------
E-x-x-5--x-x-5--x-x-5---3-3-3---------------

*2nd part of verse (is Palm muted at first, then slowly let it off)
E-------------------------------------------------------------
B-------------------------------------------------------------
G-------------------------------------------------------------
D-7-7-7-7-7-7-7-7-7-7-7-7-7-7--5-5-5--------------------------
A-7-7-7-7-7-7-7-7-7-7-7-7-7-7--5-5-5--------------------------
E-5-5-5-5-5-5-5-5-5-5-5-5-5-5--3-3-3--------------------------
[ Tab from: http://www.guitartabs.cc/tabs/m/mustard_plug/throw_a_bomb_tab.html ]
*Chorus (listen to song for timing)
E-----------------------------------------------------------
B-----------------------------------------------------------
G---------------7-x-7-----------------9-x-9-----------------
D-7--7--7-7-7---7-x-7---7--7--7-7-7---9-x-9---7--7--7-7-7---
A-7--7--7-7-7---5-x-5---7--7--7-7-7---7-x-7---7--7--7-7-7---
E-5--5--5-5-5-----------5--5--5-5-5-----------5--5--5-5-5---

E---------------------------------------------
B---------------------------------------------
G-7-x-7-----------------------9-x-9-----------
D-7-x-7----7-7-7-7-7-7-7-7----9-x-9-----------
A-5-x-5----7-7-7-7-7-7-7-7----7-x-7-----------
E----------5-5-5-5-5-5-5-5--------------------

*Verse 2 (play bass intro on 6 string)
E--------------------------------------------------------
B--------------------------------------------------------
G--------------------------------------------------------
D----7----6----4----2-------------7----6----4----6----7--
A-0-0--0-0--0-0--0-0--0-0-5s4--0-0--0-0--0-0--0-0--0-0---
E--------------------------------------------------------


Song Order:
Intro
Verse (part 1 and 2)
Chorus
Verse2
Verse(part 2)
Chorus
Break (dont play anthing, just minor feedback)
Chorus
End (same chords as chorus, drums are different though)
Comments