Mustard Plug - Thigh High Nylons Chords & Tabs

 

Thigh High Nylons Chords & Tabs

Mustard Plug Chords & Tabs

Version: 2 Type: Bass Tab 0 ratings
1 star 2 stars 3 stars 4 stars 5 stars
comments

Thigh High Nylons Bass Tab

-----------------------------------------------------------------------------
		Thigh High Nylons - Mustard Plug
-----------------------------------------------------------------------------

By:Noah: Snoopy8731

Intro: Verse
G|--------------------------------------------------------------------|
D|-----6--7--6--------------------------------------------------------|
A|--7--------------6--7--6-----4--5--4-----6--7--6--------------------|
E|--------------7-----------5-----------7-----------------------------|
[ Tab from: http://www.guitartabs.cc/tabs/m/mustard_plug/thigh_high_nylons_btab_ver_2.html ]
Chorus:  repeat as neccesary
G|--------------------------------------------------------------------|
D|--------------------------------------------------------------------|
A|--------------------------------------------------------------------|
E|--5--5--5--5--5--7--7--7--7--7--5--5--5--5--5--7--7--7--7--7--------|

Chorus: Continued
G|--------------------------------------------------------------------|
D|--------------------------------------------------------------------|
A|--7--7--7--7--7--7--7--7--7-----------------------------------------|
E|--------------------------------------------------------------------|

The weird part in the middle  *Slap for normal lookin notes, if it has 
(  ) around it pick with finger. I hope you know what i mean.
 [ ] means mute slap
G|--------------------------------------------------------------------|
D|-----(9)------------------------------------------------------------|
A|-------------------------(7)----------------------------------------|
E|--7-------0--2--3--0--0-------[7]-----(9)--(9)--(9)--(9)--(9)--------|

Comments