Mustard Plug - Lolita Chords & Tabs

 

Lolita Chords & Tabs

Mustard Plug Chords & Tabs

Version: 1 Type: Tab 0 ratings
1 star 2 stars 3 stars 4 stars 5 stars
comments

Lolita Tab

   
-------------------------------------------------------------------------------
			     LOLITA - Mustard Plug
-------------------------------------------------------------------------------
Tabbed by:Chris
Email:youngchris03@hotmail.com

Tuning: normal


Verse

   A     F#    G     E

e--5-----2-----5-----7-----|
B--5-----2-----7-----9-----|
G--6-x4--3-x4--7-x4--9-x4--|
D--7-----4-----------------|
A--------------------------|
E--------------------------|

Pickslide into chorus

chorus

Every time that were together...
    G	    E	    A
e---------------------------------------|
B---------------------------------------|
G--77777---99999-----------9--7--6--4---|
D--77777---99999---77777----------------|
A--55555---77777---77777---7--5--4--2---|
E------------------55555----------------|
[ Tab from: http://www.guitartabs.cc/tabs/m/mustard_plug/lolita_tab.html ]
e-------------------------------|
B-------------------------------|
G--77777---99999----------------|
D--77777---99999---77777777777--|
A--55555---77777---77777777777--|
E------------------55555555555--|
		   pm- -- --

I know that your thinkin of me...
e---------------------------------------|
B---------------------------------------|
G--77777---99999-----------9--7--6--4---|
D--77777---99999---77777----------------|
A--55555---77777---77777---7--5--4--2---|
E------------------55555----------------|

e-----------------------------|
B-----------------------------|
G--77777---99999--------------|
D--77777---99999---777777777--|
A--55555---77777---777777777--|
E------------------555555555--|


ending

e|----------------------------------|
B|----------------------------------|
G|----------------------------------|
D|-------------7--------------------|
A|------5555---7--------------------|
E|-------------5--------------------|
	++++


| +  harmonic

===============================================================================
Comments