Mustard Plug - Lolita Chords & Tabs

 

Lolita Chords & Tabs

Mustard Plug Chords & Tabs

Version: 1 Type: Bass Tab 0 ratings
1 star 2 stars 3 stars 4 stars 5 stars
comments

Lolita Bass Tab

Band: Mustard Plug
Song: Lolita
Album: Pray for Mojo
Tabbed By: Mr. Sucubus

This is a really fun song to play.  It's got a lot of energy.  The verse bass 
riff is played pretty fast. Just listen to the song to get all of the timing 
down.  This is only my second tab.  I'm kinda proud of it. E-mail me with any 
questions, comments, or corrections.  mr_sucubus@yahoo.com

Verse:
|------------------3-3H4-3-------------4-2--------------
|--------0-2-6-4-4--------0-0-0-4-0-2-2---4-2-----------
|-0-2-4-------------------------------------------------
|-------------------------------------------------------

last 2 times before chorus... do this
|------------------3-3H4-3-----------------1---------
|--------0-2-6-4-4---------0---0-4-0--2---2--2-------
|-0-2-4-------------------------------------------------
|-------------------------------------------------------
[ Tab from: http://www.guitartabs.cc/tabs/m/mustard_plug/lolita_btab.html ]
Chorus:
|-------------------------------------------------------
|-0-0-0-0-2--2-2-2-2------------------------------------
|--------------------0-0-0-0-4-4-X-2--2-2---------------
|-------------------------------------------------------

|--------------------------------------------------------
|-0-0-0-0-2--2-2-2-2-------------------------------------
|--------------------0--0-0-0-0-0-0-0-0-0-0-0------------
|--------------------------------------------------------

|--------------------------------------------------------
|-0-0-0-0-2--2-2-2-2-------------------------------------
|--------------------0-0-0-0-4-4-X-2--2-2----------------
|--------------------------------------------------------

|--------------------------------------------------------
|-0-0-0-0-2--2-2-2-2-------------------------------------
|--------------------0--2--4--5--4--2-0------------------
|--------------------------------------------------------

During the guitar solo... you play the first part of the verse 2x and then 
second part 2x.  Then it's the chorus.  End on an open A.

Comments