Mustard Plug - Box Chords & Tabs

 

Box Chords & Tabs

Mustard Plug Chords & Tabs

Version: 2 Type: Bass Tab 0 ratings
1 star 2 stars 3 stars 4 stars 5 stars
comments

Box Bass Tab

Bass Tab: Box 
Artist: Mustard Plug 
Album: Evildoers Beware! 
Author: Rattman (jratt0@hotmail.com) 
This is a pretty easy song to play on bass. The picking is more than shown 
here. Its easy to figure out though. 
[ Tab from: http://www.guitartabs.cc/tabs/m/mustard_plug/box_btab_ver_2.html ]
Intro: 
G----------------------------------- 
D----------------------------------- 
A-----------------1-1-1-1-1-3-3-3-3- 
E-1-1-1-1-3-3-3-3------------------- 

Verse: 
G----------------------------------------- 
D----------------------------------------- 
A-3-3-----5-5-----7-7-----8-8-7-7-5-3-2-3- 
E-----2h3-----4h5-----6h7----------------- 

The rythym changes alot but its the same bassline throughout. 

Requests for Bass Tabs? EMail Me: Jratt0@hotmail.com. 

Taken from Padrino's Bass Tab Site: http://members.xoom.com/jszalma/ 
Comments