Musiq - Halfcrazy Chords & Tabs

 

Halfcrazy Chords & Tabs

Musiq Chords & Tabs

Version: 7 Type: Tab

Halfcrazy Tab

Musiq - Halfcrazy

the other guy was almost right, but he missed a suspension in the bass that changes the last chord.
Here's my version:


Intro, Verse, Chorus

E|--------------------------------------------------------------------|
B|--7-7-7-7-7-------10-10-10-10-10-8----7-7-7-7-7------7--------------|
G|--7---------9-----9-------------------6---------9----6--------------|
D|--x---------------9-------------------9--------------8--------------|
A|--9---------------7-----------------------------------------9-7-----|
E|----------------------------------------------------------------9-2-|

or if you prefer more open playing:
[ Tab from: http://www.guitartabs.cc/tabs/m/musiq/halfcrazy_tab_ver_7.html ]
E|--2-2-2-2-2-0-----5-5-5-5-5-3-----2-2-2-2-2-0----2------------------|
B|--3---------------5---------------2--------------2------------------|
G|--x---------------4---------------4--------------3------------------|
D|--4---------------2------------------------------------4-2----------|
A|-----------------------------------------------------------4--------|
E|-------------------------------------------------------------2------|


Based upon the tone of the notes and how long the end arpeggio rings
I'd say the second version is probably how it was played on the recording.
Also, the recording uses a flamenco guitar.

sandysnowbeard@yahoo.com
4-27-2006