Music - Walls Get Smaller Chords & Tabs

 

Walls Get Smaller Chords & Tabs

Music Chords & Tabs

Version: 1 Type: Tab 0 ratings
1 star 2 stars 3 stars 4 stars 5 stars
comments

Walls Get Smaller Tab

   
Artist: The Music
Song: The Walls Get Smaller
Transcribed by: John H (ChildsHead)


(Guitar 1)
E-------------------------------||
B-------------------------------||
G--10---9---7---5---2----5/-----||
D-0----0---0---0---0---0--------||
A-------------------------------||
E-------------------------------||

(Veriation)
E------------------------------------------------------------------------||
B------------------------------------------------------------------------||
G-2-3-2-2-3-2-2-3-2-2-3-2-2-3-2-2-----5-5-5-5-5-5-5-5-5-5-5-5-5-5-5-5----||
D-0-0-0-0-0-0-0-0-0-0-0-0-0-0-0-0-----5-5-5-5-5-5-5-5-5-5-5-5-5-5-5-5----||
A-------------------------------------3-3-3-3-3-3-3-3-3-3-3-3-3-3-3-3----||
E------------------------------------------------------------------------||

Break down. Just the bass and drums are heard
The bass riff is: 

G--------------- 
D-0000000000000-
A---------------(I think the bassist plays 16th notes)
E---------------

[ Tab from: http://www.guitartabs.cc/tabs/m/music/walls_get_smaller_tab.html ]
(Guitar1)                                              ..........................X4
E----------------------------|------------------------|----------------------------|
B----------------------------|------------------------|----------------------------|
G--10---9---7---5---2----5/--|----10---9---7---12-12--|---12--15--14--12--10--9--9-|
D-0----0---0---0---0----0----|---0----0---0---0-------|--0---0---0---0---0---0--0--|
A----------------------------|------------------------|----------------------------|
E----------------------------|------------------------|----------------------------|

E---------------------|------------------------------------------------------------------------------|
B---------------------|------------------------------------------------------------------------------|
G--15--14--12--17-17--|--17-17-17-17-17-17--19-19-19-19-19-19-19--21-21-21-21-21-21-21--22-22-22-21--|
D-0---0---0---0-------|-0--0--0--0--0--0---0--0--0--0--0--0--0---0--0--0--0--0--0--0-----------------|
A---------------------|------------------------------------------------------------------------------|
E---------------------|------------------------------------------------------------------------------|





(Guitar 2) 
E----------------------------------------------------------------------------||
B----------------------------------------------------------------------------||
G-7-------9-------10------12-------14-------17-------19-------21---22---21---||
D----------------------------------------------------------------------------||
A-5-------7-------8-------10-------12-------15-------17-------19---20---19---||
E----------------------------------------------------------------------------||

I don't have a copy of this song but what is here is 100% right (not in order though). 
I will up date this tab my self when I buy the CD. Corrections and (or) comments all go to
childshead@hotmail.com
 
Take it easy and Keep rockin'
Later, 
       John (ChildsHead) 
Comments