Music - Too High Chords & Tabs

 

Too High Chords & Tabs

Music Chords & Tabs

Version: 1 Type: Tab 0 ratings
1 star 2 stars 3 stars 4 stars 5 stars
comments

Too High Tab

The Music: Too High
Here's the main bit.
E----------------------------------------------
B--6-6-----------------------------------------
G------5-5-7-7------------5--------------------
D--------------5--5-5-h-7---7------------------
A----------------------------------------------
E----------------------------------------------

The main bit features this bit.

E--8--6--5-h-6-5-------------------------------
B----------------------------------------------
G----------------------------------------------
D----------------------------------------------
A----------------------------------------------
E----------------------------------------------
[ Tab from: http://www.guitartabs.cc/tabs/m/music/too_high_tab.html ]
This is one of the nice bits that goes over the top of the main bit.

E--15-b-(16)--15-b-(16)--15-p-13---------------
B--------------------------------15------------
G----------------------------------------------
D----------------------------------------------
A----------------------------------------------
E----------------------------------------------

I think the nice bits basically fall into this scale, so play around with 
the notes for a while. I think it' mainly the E and B strings.

E--15-13-12------------------------------------
B-----------15-13-12---------------------------
G--------------------14-12---------------------
D--------------------------15-14-12------------
A-----------------------------------15-14-12---
E----------------------------------------------

Comments