Music - Jag Tune Chords & Tabs

 

Jag Tune Chords & Tabs

Music Chords & Tabs

Version: 1 Type: Tab 0 ratings
1 star 2 stars 3 stars 4 stars 5 stars
comments

Jag Tune Tab

The Music: Jag Tune

Key: h: hammer on

Here's the tab for Jag Tune, in my opinion the best song on the new e.p.

The song is basically made up of 3 riffs. 
Here they are in the order they appear. Listen to the song to see
where they should go.

Riff 1:

e----------------
B--9----7----0---
G--9----7----0---
D--9----7----0---
A----------------
E----------------

Riff 2:
[ Tab from: http://www.guitartabs.cc/tabs/m/music/jag_tune_tab.html ]
e-slide to 12--10-------------------------
B-----------------------------------------
G--------------------11-h-12-12-12--------
D-----------------------------------------
A-----------------------------------------
E-----------------------------------------

Riff 3: 

e---------------------------------
B---------------------------------
G------------------7--------------
D-9-9-9-7-7-7-h-9-----------------
A---------------------------------
E---------------------------------


If you have any suggestions, feel free to email me at citizen_erased50@hotmail.com
Comments