Music - Getaway Chords & Tabs

 

Getaway Chords & Tabs

Music Chords & Tabs

Version: 1 Type: Tab 0 ratings
1 star 2 stars 3 stars 4 stars 5 stars
comments

Getaway Tab

Gataway      

By The Music

Tabbed By Shaun Adams.                               


                                                             



                                                               
E||-------------------||-----------------------------10------||
B||-------------------||-------------------------------------||
G||-------------------||*--12-----12-----13--12-------------*||
D||-------------------||*-----------------------------------*||
A||----------------8--||---10--10-10--10-----10--10------8---||
E||-------------------||-------------------------------------||


                                                                              
-----------------------------10------||-----------------------------10------||
-------------------------------------||-------------------------------------||
*--12-----12-----13--12-------------*||*--12-----12-----13--12-------------*||
*-----------------------------------*||*-----------------------------------*||
---10--10-10--10-----10--10------8---||---10--10-10--10-----10--10------8---||
-------------------------------------||-------------------------------------||


                                                                              
-----------------------------10------||-----------------------------10------||
-------------------------------------||-------------------------------------||
*--12-----12-----13--12-------------*||*--12-----12-----13--12-------------*||
*-----------------------------------*||*-----------------------------------*||
---10--10-10--10-----10--10------8---||---10--10-10--10-----10--10------8---||
-------------------------------------||-------------------------------------||


                                                                              
-----------------------------10------||-----------------------------10------||
-------------------------------------||-------------------------------------||
*--12-----12-----13--12-------------*||*--12-----12-----13--12-------------*||
*-----------------------------------*||*-----------------------------------*||
---10--10-10--10-----10--10------8---||---10--10-10--10-----10--10------8---||
-------------------------------------||-------------------------------------||


                                                                              
-----------------------------10------||-----------------------------10------||
-------------------------------------||-------------------------------------||
*--12-----12-----13--12-------------*||*--12-----12-----13--12-------------*||
*-----------------------------------*||*-----------------------------------*||
---10--10-10--10-----10--10------8---||---10--10-10--10-----10--10------8---||
-------------------------------------||-------------------------------------||


                                                                              
-----------------------------10------||-----------------------------10------||
-------------------------------------||-------------------------------------||
*--12-----12-----13--12-------------*||*--12-----12-----13--12-------------*||
*-----------------------------------*||*-----------------------------------*||
---10--10-10--10-----10--10------8---||---10--10-10--10-----10--10------8---||
-------------------------------------||-------------------------------------||

[ Tab from: http://www.guitartabs.cc/tabs/m/music/getaway_tab.html ]
                                                                              
-----------------------------10------||-----------------------------10------||
-------------------------------------||-------------------------------------||
*--12-----12-----13--12-------------*||*--12-----12-----13--12-------------*||
*-----------------------------------*||*-----------------------------------*||
---10--10-10--10-----10--10------8---||---10--10-10--10-----10--10------8---||
-------------------------------------||-------------------------------------||


                                                                              
-----------------------------10------||-----------------------------10------||
-------------------------------------||-------------------------------------||
*--12-----12-----13--12-------------*||*--12-----12-----13--12-------------*||
*-----------------------------------*||*-----------------------------------*||
---10--10-10--10-----10--10------8---||---10--10-10--10-----10--10------8---||
-------------------------------------||-------------------------------------||


                                                                               
-----------------------------10------|		
-------------------------------------|	
*--12-----12-----13--12-------------*|		
*-----------------------------------*|					
---10--10-10--10-----10--10------8---|					
-------------------------------------|	

Play the above riff twice.	
Each bar is the same it's just 	
repeated 32 times.				


                                                       
|-----------------------------||-----------------------------|
|-----------------------------||-----------------------------|
|-----------------------------||-----------------------------|
|*---------------------------*||*---------------------------*|
|*---------------------------*||*---------------------------*|
|---5--5--5--5--5--5--5--5-5--||---5--5--5--5--5--5--5--5-5--|
|---3--3--3--3--3--3--3--3-3--||---3--3--3--3--3--3--3--3-3--|


                                                            
|-----------------------------||-----------------------------|
|-----------------------------||-----------------------------|
|*---------------------------*||*---------------------------*|
|*---------------------------*||*---------------------------*|
|---3--3--3--3--3--3--3--3-3--||---3--3--3--3--3--3--3--3-3--|
|---1--1--1--1--1--1--1--1-1--||---1--1--1--1--1--1--1--1-1--|



|-----------------------------||-----------------------------||
|-----------------------------||-----------------------------||
|*---------------------------*||*---------------------------*||
|*--8--8--8--8--8--8--8--8-8-*||*--8--8--8--8--8--8--8--8-8-*||
|---6--6--6--6--6--6--6--6-6--||---6--6--6--6--6--6--6--6-6--||
|-----------------------------||-----------------------------||



|-----------------------------||-----------------------------|
|-----------------------------||-----------------------------|
|*---------------------------*||*---------------------------*| 
|*---------------------------*||*---------------------------*|
|---3--3--3--3--3--3--3--3-3--||---3--3--3--3--3--3--3--3-3--|
|---1--1--1--1--1--1--1--1-1--||---1--1--1--1--1--1--1--1-1--|


Play the above riff three times.


Thats basically it! Please feel free to update this tab or email me at sradams1977@hotmail.com with suggestions.








Comments