Mushroomhead - Xeroxed Chords & Tabs

 

Xeroxed Chords & Tabs

Mushroomhead Chords & Tabs

Version: 1 Type: Tab 0 ratings
1 star 2 stars 3 stars 4 stars 5 stars
comments

Xeroxed Tab

Mushroomhead - Xeroxed
Tabbed By: Kris
EMail: Just4Pain@hotmail.com

[ Tab from: http://www.guitartabs.cc/tabs/m/mushroomhead/xeroxed_tab.html ]
------------------
------------------
------------------
-2-3-2--2-2-2-2---    REPEAT   
-2-3-2--2-2-2-2---   
-0-1-0--0-0-0-0---
       PM......  -------------------------
-------------------------
-------------------------
-2-5-3--2-2-2-2---2-2-2-2    
-2-5-3--2-2-2-2---2-2-2-2   
-0-3-1--0-0-0-0---0-0-0-0 
        PM......SPEED THIS UP


----------------------------------------------
----------------------------------------------
----------------------------------------------
2-2---2-2---2-2---2-2---2-2---2-2---2-2-5-----  
2-2---2-2---2-2---2-2---2-2---2-2---2-2-5-----
0-0---0-0---0-0---0-0---0-0---0-0---0-0-3-----
PM....................................

I know this isnt 100% right but it sounds right to me....
Comments