Mushroomhead - These Filthy Hands Chords & Tabs

 

These Filthy Hands Chords & Tabs

Mushroomhead Chords & Tabs

Version: 3 Type: Tab 0 ratings
1 star 2 stars 3 stars 4 stars 5 stars
comments

These Filthy Hands Tab

These Filthy Hands from Mushroomhead
Tuning: Drop A (AEADGBe) 7 string isn't needed though, this IS theit tuning
[ Tab from: http://www.guitartabs.cc/tabs/m/mushroomhead/these_filthy_hands_tab_ver_3.html ]
Intro/Verse
--------------------------------------|
--------------------------------------|
--------------------------------------|
--------------------------------------|
-2h3-xx-323--22-22--2h4-xx-424--22-22-|
-2h3-xx-323--22-22--2h4-xx-424--22-22-|
-2h3-xx-323--22-22--2h4-xx-424--22-22-|
         .   .. ..          .   .. ..
--------------------------------------|
--------------------------------------|
--------------------------------------|
--------------------------------------|
-2h3-xx-323-22-22---------------------|
-2h3-xx-323-22-22--2~-----------------|
-2h3-xx-323-22-22--2~-----------------|
         .  .. ..
Chorus
-----------------------------------|
-----------------------------------|
-----------------------------------|
-----------------------------------|
-2h3-xx-3232323222~----------------|
-2h3-xx-3232323222~--22~-----------|
-2h3-xx-3232323222~--22~-----------|
         . . . ..    .
-----------------------------------|
-----------------------------------|
-----------------------------------|
-----------------------------------|
-2h4-xx-4242424223~-33-3-4-3-------|
-2h4-xx-4242424223~-33-3-4-3-------|
-2h4-xx-4242424223~-33-3-4-3-------|
         . . . ..   ..
-----------------------------------|
-----------------------------------|
-----------------------------------|
-----------------------------------|
-2h3-xx-3232323222~----------------|
-2h3-xx-3232323222~--22~--0~-------|
-2h3-xx-3232323222~--22~--0~-------|
         . . . ..    .
-play verse
-play Chorus
Interlude 1
------|    -------------------------|
------|    -------------------------|
------|    -------------------------|
------|X28 -------------------------|
------|    -44----44----44----------|
-222--|    -22-00-22-00-22----------|
-222--|    ----00----00-------------|
 ...           ..    ..
Interlude 2
-----------------------------------|
-----------------------------------|
-----------------------------------|
-----------------------------------|
-55-33-00-3-4-3-4------------------|
-55-33-00-3-4-3-4------------------|
-55-33-00-3-4-3-4------------------|

Interlude 3
------------------------------------|
------------------------------------|
------------------------------------|
------------------------------------|
------------------44----44----44----|
-222-222-222-222--22-00-22-00-22----|
-222-222-222-222-----00----00-------|
 ... ... ... ...     ..    ..
Interlude 4 is Interlude 1 without palm mutes
Interlude 5 is Chorus
-play verse
-play Interlude 4
-play Interlude 5
Comments