Mushroomhead - The New Cult King Chords & Tabs

 

The New Cult King Chords & Tabs

Mushroomhead Chords & Tabs

Version: 1 Type: Tab 0 ratings
1 star 2 stars 3 stars 4 stars 5 stars
comments

The New Cult King Tab

Mushroomhead - "The New Cult King"

6 String Tune dto Drop D (DADGbe)

(INTRO)(keyboard transcribed to guitar)
D--------6---------4------------------------6-----------4------------------------
A-------------------------6------0-0-0-------------------------------6-----0-0-0-
D---6--------6-------6-------6------------6----------6--------6----------6-------

(RIFF1)(JUST PLAY AROUND WITH THESE NOTES)
E-------------------------------------------
B-------------------------------------------
G------9-9-9-8----------9-9-9-8-------------
D------7-7-7-6----------7-7-7-6-------------
A-------------------------------------------
D-------------------------------------------

(RIFF 2)
E------------------------------------------
B------------------------------------------
G------------------------------------------
D----7-7-7-6-------------7-7-7-6-----------
A----7-7-7-6-------------7-7-7-6-----------
D----7-7-7-6-------------7-7-7-6-----------

(RIFF3)
E-----------------------------------------------------
B-----------------------------------------------------
G-----------------------------------------------------
D-----------------------------------------------------
A--6-6-6-6-6-6-6-6-6-6--4-4-4-4-4-4-4-4-4-4-4-4-4-----
D--6-6-6-6-6-6-6-6-6-6--4-4-4-4-4-4-4-4-4-4-4-4-4-----

(JUST LISTEN FOR THE RYTHYMS)
[ Tab from: http://www.guitartabs.cc/tabs/m/mushroomhead/the_new_cult_king_tab.html ]
(RIFF 4)
E-----------------------------------------------------
B-----------------------------------------------------
G-----------------------------------------------------
D-----------------------------------------------------
A-----------------------------------------------------
D--6-6-6--6-6-6-6--6-6-6-6-6--6-6-6--6-6-6--6-6-6-6-6-



RIFF 4 CONTINUED)
E-----------------------------------------------------
B-----------------------------------------------------
G-----------------------------------------------------
D-----------------------------------------------------
A-----------------------------------------------------
D--4-4-4--4-4-4-4--4-4-4-4-4-6-6-6--6-6-6-6--6-6-6-6--
(listen for rythym)

(BRIDGE)
E--------------------------------------------
B--------------------------------------------
G--------------------------------------------
D-------------------------7-7-7-6------------
A-------------------------7-7-7-6------------
D----7-7-7-6------AND-----7-7-7-6------------

(LAST 3 NOTES, LIKE A BRIDGE)
E---------------------------
B-------------------9-------
G-------------6-------------
D-------6-------------------
A---------------------------
D---------------------------

THE LONG HELD OUT NOTE AT THE END IS...
E-----------------------------------------------------
B-----------------------------------------------------
G-----------------------------------------------------
D-----------6---SLIDE SLOWLY BY HALF STEPS TO------1--
A-----------------------------------------------------
D-----------------------------------------------------
Comments