Mushroomhead - Sun Doesnt Rise Chords & Tabs

 

Sun Doesnt Rise Chords & Tabs

Mushroomhead Chords & Tabs

Version: 3 Type: Tab 0 ratings
1 star 2 stars 3 stars 4 stars 5 stars
comments

Sun Doesnt Rise Tab

Sun Doesn't Rise from Mushroomhead
Tuning: AEADGBe but 7 string isn't needed for this song.

Intro
------------------------      -------------------------|
------------------------      -------------------------|
------------------------      -------------------------|
------------------------ (X3) -------------------------|
------------------------      -------------------------|
-4/6-6666-666-6/7-77777-      -6\2-2222-2222-2/6664444-|
------------------------      -------------------------|

Verse 1
--------------------|
--------------------|
--------------------|
--------------------| (X4)
-3-xx-3-3-xxxx------|
-3-xx-3-3-xxxx------|
-3-xx-3-3-xxxx------|

Verse 2
--------------------|
--------------------|
--------------------|
----------666/7-----| (X3)
-3-xx-3-3-xxx-x-----|
-3-xx-3-3-444/5-----|
-3-xx-3-3-----------|

Pre-chorus
--------------------|
--------------------|
--------------------|
--------5-4-6-------| (X1)
-4-6-8--5-4-6-------|
-4-6-8--3-2-4-------|
-4-6-8--------------|
[ Tab from: http://www.guitartabs.cc/tabs/m/mushroomhead/sun_doesnt_rise_tab_ver_3.html ]
Chorus
--------------------|
--------------------|
--------------------|
--------------------|
-3-3--3-3--3-5~-7~--|
-3-3xx3-3xx3-5~-7~--|
-3-3xx3-3xx3-5~-7~--|

--------------------|
--------------------|
--------------------|
--------------------|
-3-3--3-3--3-7~-5~--|
-3-3xx3-3xx3-7~-5~--|
-3-3xx3-3xx3-7~-5~--|

--------------------|
--------------------|
--------------------|
--------------------|
-3-3--3-3--3-5~-7~--|
-3-3xx3-3xx3-5~-7~--|
-3-3xx3-3xx3-5~-7~--|

-------------------------|
-------------------------|
-------------------------|
-------------------------|
-3-3--3-3--3-7-5-6-5-3~--|
-3-3xx3-3xx3-7-5-6-5-3~--|
-3-3xx3-3xx3-7-5-6-5-3~--|

-play Verse 1 and Verse 2
-play Pre-chorus and Chorus

Interlude 1 is the Intro
Interlude 2 is Verse 2

-play the Chorus

Outro 1
------------------|
------------------|
------------------|
------------------| (x4)
-222-x222-222222--|
-222-x222-222222--|
-222-x222-222222--|
          ......
Outro 2
---------------------|
---------------------|
---------------------|
---------------------| (X3)
-222-x222-2-2-2-2-2--|
-222-x222-2-2-2-2-2--|
-222-x222-2-2-2-2-2--|
          . . . . .
end on
-----------|
-----------|
-----------|
-----------|
-222-x222--|
-222-x222--|
-222-x222--|
Comments