Mushroomhead - Solitaire Unraveling Chords & Tabs

 

Solitaire Unraveling Chords & Tabs

Mushroomhead Chords & Tabs

Version: 3 Type: Tab 0 ratings
1 star 2 stars 3 stars 4 stars 5 stars
comments

Solitaire Unraveling Tab

   
Mushroomhead - Solitaire Un-raveling

Tuning - Drop D and down 1 & a half steps (B,F#,B,E,G#,C#)

First off, i know that this tab is probably shit, but its the closest i could get.
if you want a better one then you can tab it out...


 Intro: Keyboards

 Pre-Verse:
Guitars 1 & 2
|----------|
|----------|
|----------|
|--2--1-0--|
|--2--1-0--|
|--3--2-1--|
PM *  * *

 Verse Part 1:
Guitar 1  (These arent slides, They are done with a whammy bar but its easier show 
them this way)
|--------|--8/23--|
|--------|--------|
|--------|--------|
|--------|--------|
|--------|--------|
|--13\0--|--------|

 Verse Part 2:
Guitars 1 & 2
|------------------------------------------|
|------------------------------------------|
|--x--x--x---x--x--x---x--x--x---x--x--x---|
|--xx-xx-xx--xx-xx-xx--xx-xx-xx--xx-xx-xx--|
|--xx-xx-xx--xx-xx-xx--xx-xx-xx--xx-xx-xx--|
|--xx-xx-xx--xx-xx-xx--xx-xx-xx--xx-xx-xx--|
PM ** ** **  ** ** **  ** ** **  ** ** **


 Pre-Chorus:
Guitar 1
|------------------------|
|--10b\2/20--------------|
|------------------------|
|------------------------|
|------------------------|
|------------------------|

Guitar 2
|------------------------|
|------------------------|
|-------------x----x--x--|
|----------x--x-x-xx-xx--|
|----------x--x-x-xx-xx--|
|----------x--x-x-xx-xx--|

 Chorus: (I'm not sure about this, im pretty sure its wrong but u can get the idea maybe...)
Guitar 1
|---------------------------|    |---------|
|---------------------------|    |---------|
|---------------------------| x4 |--9-8-7--|
|--5h6-5p0h2p0-5h6-5p0h1p0--|    |---------|
|--5h6-5p0h2p0-5h6-5p0h1p0--|    |---------|
|--5h6-5p0h2p0-5h6-5p0h1p0--|    |---------|
  "Time ticks away..."

Guitar 2
|---------------------------|    |---------|
|---------------------------|    |---------|
|---------------------------| x4 |---------|
|--5h6-7p6p5h6-5h6-7p6p5h6--|    |---0h2---|
|--5h6-7p6p5h6-5h6-7p6p5h6--|    |---0h2---|
|--5h6-7p6p5h6-5h6-7p6p5h6--|    |---0h2---|
  "Time ticks away..."


~~Verse Part 2 x1~~

~~Pre-Chorus x1~~

~~Chorus x2~~


 Bridge 1:
KeyBoards/Guitar 3
|--15-15-15-15-15-15-15-15-17-17-17-17-17-17-17-17--|
|--17-17-17-17-17-17-17-17-17-17-17-17-17-17-17-17--|
|---------------------------------------------------| x4
|---------------------------------------------------|
|---------------------------------------------------|
|---------------------------------------------------|

Guitars 1 & 2
|---------------------------------------------------------|
|------------------------------------------------x----x---|
|------------------------------------------------xx---xx--| x4
|--0h2------0h2-----------0h2------0h2-----------xx---xx--|
|--0h2------0h2-----------0h2------0h2-----------xx---xx--|
|--0h2------0h2-----------0h2------0h2--------------------|
                                                "Rest Rest"

 Bridge 2:
 Part 1:
KeyBoards/Guitar 3
|---------------19---17-16------------------19---17-16--|
|-------16-------------------------16-------------------|
|--19------------------------19-------------------------|
|-------------------------------------------------------|
|-------------------------------------------------------|
|-------------------------------------------------------|

Guitars 1 & 2
|-------------------------------------------------------|
|-------------------------------------------------------|
|-------------------------------------------------------|
|--3----7-------10---6-------33----77-------10---6------|
|--3----7-----xx8----6-----xx33----77-----xx8----6------|
|--3----7-----xx8----6-----xx33----77-----xx8----6------|
PM            **                **             **

 Part 2:
Keyboards/Guitar 3
|-------------------------------------19-----17-16------------|
|-------------------16----------------------------------------|
|------------19-----------------------------------------------|
|-------------------------------------------------------------|
|-------------------------------------------------------------|
|-------------------------------------------------------------|
Jeffery: "Condemned man............Convicted man.............."
J Mann : "               CONTEMPT                 CONVICTED   "

Guitars 1 & 2
|-------------------------------------------------------------|
|-------------------------------------------------------------|
|-------------------------------------------------------------|
|------------3------7-----------------10-----6----------------|
|----------xx3------7---------------xx8------6----------------|
|----------xx3------7---------------xx8------6----------------|
PM         **                       **
Jeffery: "Condemned man............Convicted man.............."
J Mann : "               CONTEMPT                 CONVICTED   "

Keyboards/Guitar 3
|----------------------------------------19--------17-16--|
|---------------------------16----------------------------|
|---------------19----------------------------------------|
|---------------------------------------------------------|
|---------------------------------------------------------|
|---------------------------------------------------------|
Jeffery: "Could not save my life cutting strand by strand"
J Mann : "                                  Strand by strand"

Guitar 1
|---------------------------------------------------------|
|---------------------------------------------------------|
|---------------------------------------------------------|
|---------------33----------77-----------10--------6------|
|-------------xx33----------77---------xx8---------6------|
|-------------xx33----------77---------xx8---------6------|
PM            **                       **
Jeffery: "Could not save my life cutting strand by strand"
J Mann : "                                  Strand by strand"
[ Tab from: http://www.guitartabs.cc/tabs/m/mushroomhead/solitaire_unraveling_tab_ver_3.html ]
Guitar 2
|---------------------------------------------------------|
|---------------------------11---11--13--14---------------|
|---------------14---------------------------------14-----|
|---------------------------------------------------------|
|---------------------------------------------------------|
|---------------------------------------------------------|
Jeffery: "Could not save my life cutting strand by strand"
J Mann : "                                  Strand by strand"


 Part 3:
Keyboards/Guitar 3
|-------------------------------------------------------------|
|-------------------------------------------------------------|
|-------------------------------------16-----14---------------|
|-------------------13----------------------------------------|
|------------17-----------------------------------------------|
|-------------------------------------------------------------|
Jeffery: "Condemned man............Convicted man.............."
J Mann : "               CONTEMPT                 CONVICTED   "

Guitars 1 & 2
|-------------------------------------------------------------|
|-------------------------------------------------------------|
|-------------------------------------------------------------|
|------------3-------7-----------------10-------6-------------|
|----------xx3-33333-7-777777777-------8--88888-6-666666666---|
|----------xx3-33333-7-777777777-------8--88888-6-666666666---|
PM         **  *****   *********          *****   *********
Jeffery: "Condemned  man............Convicted   man.............."
J Mann : "                CONTEMPT                   CONVICTED   "

Keyboards/Guitar 3
|---------------------------------------------------------------|
|---------------------------------------------------------------|
|----------------------------------------16--------14-----------|
|---------------------------13----------------------------------|
|---------------17----------------------------------------------|
|---------------------------------------------------------------|
Jeffery: "Could not save my life cutting strand by strand"
J Mann : "                                  Strand by strand"

Guitar 1
|---------------------------------------------------------------|
|---------------------------------------------------------------|
|---------------------------------------------------------------|
|---------------3-----------7------------10--------6------------|
|------------xx-3-33333-----7-777777777--8--88888--6-666666666--|
|------------xx-3-33333-----7-777777777--8--88888--6-666666666--|
PM           **   *****       *********     *****    *********
Jeffery: "Could not save my life cutting strand by strand"
J Mann : "                                  Strand by strand"


 Bridge 3:
Guitar 1
|------0-----0--0------0------0----0---0-------0----0-------0-----0----0----0----0-0--0--|
|---------11------11-------13---14-----------11--11-----11-----13---13---13---14---------|
|--14------------------------------14----14----------------------------------------14----| x1
|----------------------------------------------------------------------------------------|
|----------------------------------------------------------------------------------------|
|----------------------------------------------------------------------------------------|
 "Passing it off like some kind of king, You don't know peace 'til you've had suffering"

~~Bridge 1 x1~~

~~Bridge 2 Part 3 x1~~

~~Bridge 2 Part 2 x1~~


 Outro:
 Part 1
Guitar 1
|-------------------------|
|-------11--11-12-14------|
|--14---x---x--x--x---14--|
|--x----8---8--10-11--x---|
|--12-----------------12--|
|-------------------------|

 Part 2
Guitar 1
|-----0----0----0----0----0----0---|
|-------11---11---11---13---14-----|
|--14--------------------------14--|
|----------------------------------|
|----------------------------------|
|----------------------------------|


Lyrics
------

Locked away in a cage
My rage has got the best of me
Time finds a way each day
Of leaving less of me behind
I find this fight must be won
Inside the mind
So uptight and confined
Often blinded by the light

Taking its toll
On my system

Like some played out existence
Time ticks away
These last few moments
Is there anything
We've left unsaid?
I'm on a quest
For atonement
I've got to find piece of mind
And a place to rest

Biding my time
Until I'm strong enough
To fight back
Hope
I hope against hope
For some resistance
Been taking it out on my system

Time ticks away
These last few moments
Is there anything
We've left unsaid?
I'm on a quest
For atonement
I've got to find piece of mind
And a place to rest

Time ticks away
These last few moments
Is there anything
We've left unsaid?
I'm on a quest
For atonement
I've got to find piece of mind
And a place to rest

Rest, Rest
Rest, Rest

There's a calm before the storm
And the western front is quiet
I've got rembrandt as my right hand
And solo as my pilot

There's a calm before the storm
And the western front is quiet
I've got rembrandt as my right hand
And solo as my pilot

Condemned man - Contempt
Convicted man - Convicted
Could not save my life
Cutting strand by strand (Strand by strand)

Condemned man - Contempt
Convicted man - Convicted
Could not save my life
Cutting strand by strand (Strand by strand)

Passing it off
Like some kind of king
You don't know peace
'Til you've had suffering

I've suffered

All of your so-called resolve
But you haven't tasted pain
Have you ever been inside
Of the new masterpiece

Rest - Have you ever been inside
Rembrandt as my right hand
And solo as my pilot
Have you ever been inside
Of the new masterpiece (Rembrandt as my right hand and solo as my pilot)

Condemned man - Contempt
Convicted man - Convicted
Could not save my life
Cutting strand by strand (Strand by strand)

Condemned man - Contempt
Convicted man - Convicted
Could not save my life
Cutting strand by strand

Strand by strand
By strand
By strand
By strand
By strand
(Condemned) By strand
By strand
By strand
By strand
Condemned

"It can be anybody"
"It can look like anything at all, anyone at all"
"You can never tell"
"Regular People"
"They look like human beings"

Questions???Comments???   sad_air_732@hotmail.com
Comments