Mushroomhead - Solitair Unraveling Chords & Tabs

 

Solitair Unraveling Chords & Tabs

Mushroomhead Chords & Tabs

Version: 1 Type: Bass Tab 0 ratings
1 star 2 stars 3 stars 4 stars 5 stars
comments

Solitair Unraveling Bass Tab

   
R=LET IT RING.

NOTE:BEFORE WE START,THEN PLAY THIS OR LISTEN TO THE SONG ENOUGH TO MEMORISE THE BEAT AND PLAY IT,OR IT WOULD SOUND WRONG......!

VERSE:
G[-------------------------------------------------]
D[-------------------------------------------------]
A[-------------------------------------------------]
E[-------------------------------------------------]
B[--2-3-4-5-4-3--------2-3---4-5---4-3-------------]
THIS ^^^^^^^^IS WHEN THE GUITAR STARTS TOO.
G[-------------------------------------------------]
D[-------------------------------------------------]
A[-------------------------------------------------]
E[-------------------------------------------------]
B[-2-3--4-5--4-3----2-3--4-5---4-3---2-2--4-5--4-3R]

G[------------------------------------------------]
D[------------------------------------------------]
A[------------------------------------------------]
E[------------------------------------------------]
B[--2-3---4-5---4-3-----2-3--4-5--4-3----2-3--4-5-]

G[--------------------------------------]
D[--------------------------------------]
A[--------------------------------------]
E[--------------------------------------]
B[-4-3----2-3---4-5---4-3----2-3-4-5-4-3]

CHORUS:

G[------------------------------------------------]
D[------------------------------------------------]
A[------------------------------------------------]
E[------------------------------------------------]
B[-2-3---4-5--5-4-3-2-----2-3--4-5---5-4-3-2------]

G[------------------------------------------------]
D[------------------------------------------------]
A[------------------------------------------------]
E[------------------------------------------------]
B[-2-3---4-5--5-4-3-2---2-3--4-5---5-4-3-2--------]

VERSE 2:

G[------------------------------------------------]
D[------------------------------------------------]
A[------------------------------------------------]
E[------------------------------------------------]
B[--2-3---4-5---4-3-----2-3---4-5---4-3-----2-3---]

G[------------------------------------------------]
D[------------------------------------------------]
A[------------------------------------------------]
E[------------------------------------------------]
B[-4-5--4-3---2-3--4-5--4--3R------2-3--4-5--4-3--]

G[------------------------------------------------]
D[------------------------------------------------]
A[------------------------------------------------]
E[------------------------------------------------]
B[-2-3--4-5--3-2----2-3--4-5--4-3----2-3--4-5--4-3]

CHORUS 2:

G[------------------------------------------------]
D[------------------------------------------------]
A[------------------------------------------------]
E[------------------------------------------------]
B[-2-3---4-5--5-4-3-2-----2-3--4-5---5-4-3-2------]

G[------------------------------------------------]
D[------------------------------------------------]
A[------------------------------------------------]
E[------------------------------------------------]
B[-2-3---4-5--5-4-3-2---2-3--4-5---5-4-3-2--------]

G[------------------------------------------------]
D[------------------------------------------------]
A[------------------------------------------------]
E[------------------------------------------------]
B[-2-3---4-5--5-4-3-2-----2-3--4-5---5-4-3-2------]
[ Tab from: http://www.guitartabs.cc/tabs/m/mushroomhead/solitair_unraveling_btab.html ]
G[------------------------------------------------]
D[------------------------------------------------]
A[------------------------------------------------]
E[------------------------------------------------]
B[-2-3---4-5--5-4-3-2---2-3--4-5---5-4-3-2--------]

BRIDGE :
NOTE:TAKE A REST WHILE HE IS SAYING REST.....OK IAM NOT FUNNY BUT U HAVE 
TO START WHEN JMANN STARTS SAYING WORDS I DON'T KNOW.
G[------------------------------------------------]
D[------------------------------------------------]
A[------------------------------------------------]
E[------------------------------------------------]
B[---2-2-2-2-2-3-4-2-2-2-2-2-2-3-4-2-2-2-2-2-2-3-4]
OK I DONT KNOW HOW MANY TIMES U GOTTA DO THIS BUT IT STOPS WHEN JMANN SCREAMS,
AND THEN U START WITH...

BRIDGE 2:
NOTE THIS STARTS WHEN JEFFREY STARTS SINGING......

G[------------------------------------------------]
D[------------------------------------------------]
A[------------------------------------------------]
E[------------------------------------------------]
B[--2R--3R-------6R-----5R----2R--3R-----6R----5R-]
NOTE:IF U LISTEN CAREFULLY IN THIS PART U CAN HEAR THE BASS.

BRIDGE 1:
G[------------------------------------------------]
D[------------------------------------------------]
A[------------------------------------------------]
E[------------------------------------------------]
B[--2-2-2-2-2-2-3-4-2-2-2-2-2-2-2-3-4-2-2-2-2-3-4-]
YOU KEEP PLAYING THIS PART TILL  JEFFREY SINGS:"FIGHTING IT OFF...."

BRIDGE 3:
NOTE THIS STARTS WHEN JMANN SCREAMS "WELL I HAVE SUFERED"
G[---------------------------------------------------------]
D[---------------------------------------------------------]
A[---------------------------------------------------------]
E[---------------------------------------------------------]
B[--2-3---6-5------2-3---6-5-------2-3---6-5-----2-3----6-5]

BRIDGE 1:
THIS STARTS AGAIN AFTER THE FIRST TIME JEFFERY SAYS:"HAVE YOU EVER BEEN INSIDE 
THE NEW MASTERPIECE....."

G[-------------------------------------------------------]
D[-------------------------------------------------------]
A[-------------------------------------------------------]
E[-------------------------------------------------------]
B[-2-2-2-2-2-3-4-2-2-2-2-2-3-4-2-2-2-2-2-3-4-2-2-2-2-3-4-]



BRIDGE 2:
NOTE:THIS STARTS WITH THE GUITARS,ITS BEFORE THE LAST TIME JEFFERY SINGS:
"CONDEMED MAN....."
G[------------------------------------------------]
D[------------------------------------------------]
A[------------------------------------------------]
E[------------------------------------------------]
B[--2R--3R-------6R-----5R----2R--3R-----6R----5R-]

BRIDGE 1:
G[-------------------------------------------------------]
D[-------------------------------------------------------]
A[-------------------------------------------------------]
E[-------------------------------------------------------]
B[-2-2-2-2-2-3-4-2-2-2-2-2-3-4-2-2-2-2-2-3-4-2-2-2-2-3-4-]
YOU PLAY THIS WHILE JMANN IS SAYING"BLOOD,SWET....." AND ENDS WHEN JEFFERY 
SAYS HIS LAST WORDS"CONDEMED.."

THESE ARE EASY TABS TO FIGER OUT BUT ITS JUST MIXED INTO THE
SONG,AND IF YOU FIND THE CHORUS WRONG THEN.....EMAIL ME AT FREAKS_SHOW_@HOTMAIL.COM,
AND IF YOU WANNA THANK ME,YOU CAN ALSO EMAIL ME.....

NOTE:IF U DONT KNOW WHO JMANN AND JEFFERY IS:
JMANN:THE ONE WHO SCREAMS TOO MUCH.
JEFFERY:THE SLOW AND COOL ONE
Comments