Mushroomhead - Never Let It Go Chords & Tabs

 

Never Let It Go Chords & Tabs

Mushroomhead Chords & Tabs

Version: 1 Type: Tab 0 ratings
1 star 2 stars 3 stars 4 stars 5 stars
comments

Never Let It Go Tab

Never let it go
Mushroomhead
XX
tabbed by crazytom
deathtone@wanadoo.fr

00:00
---------------------------
---------------------------
---------------------------
---0---0---0---0---6---6---
---0---0---0---0---6---6---
---0---0---0---0---6---6---

01:06
-------------------------
-------------------------
-------------------------
---7/9-9-9--9-9-0--9-0---
---7/9-9-9--9-9-0--9-0---
---7/9-9-9--9-9-0--9-0---
[ Tab from: http://www.guitartabs.cc/tabs/m/mushroomhead/never_let_it_go_tab.html ]
02:10
----------------------
----------------------
----------------------
---3--2--1--3--2--1---
---3--2--1--3--2--1---
---3--2--1--3--2--1---

02:17
-------------------------------
-------------------------------
-------------------------------
---3-1-0--0-1-0-3-1-0--0-1-0---
---3-1-0--0-1-0-3-1-0--0-1-0---
---3-1-0--0-1-0-3-1-0--0-1-0---

02:24                               02:36
-----------------------------------|-----------
-----------------------------------|-----------
-----------------------------------|---5-5-5---
---3-2-1-0--0-1-0-3-2-1-0--0-1-0---|-----------
---3-2-1-0--0-1-0-3-2-1-0--0-1-0---|---3-3-3---
---3-2-1-0--0-1-0-3-2-1-0--0-1-0---|-----------
Comments