Mushroomhead - Mother Machinegun Chords & Tabs

 

Mother Machinegun Chords & Tabs

Mushroomhead Chords & Tabs

Version: 1 Type: Tab 0 ratings
1 star 2 stars 3 stars 4 stars 5 stars
comments

Mother Machinegun Tab

Mother Machinegun from Mushroomhead
Tuning: Drop A (AEADGBe) 7 string not NEEDED
[ Tab from: http://www.guitartabs.cc/tabs/m/mushroomhead/mother_machinegun_tab.html ]
Intro
-----------------------------------|
-----------------------------------|
-----------------------------------|
-----------------------------------|
-----------------------------------|
-222222222222----------------------|
-222222222222----------------------|
 ............
Verse
-----------------------------------|
-----------------------------------|
-----------------------------------|
-----------------------------------|
-0h2-222--0h2-222--0h2-222---------|
-0h2-222--0h2-222--0h2-222--334455-|
-0h2-222--0h2-222--0h2-222--334455-|
     ...      ...      ...  ......
Verse 2
-----------------------------------|
-----------------------------------|
-----------------------------------|
-----------------------------------|
-0h2-2222-0h2-2222-0h2-2222--------|
-0h2-2222-0h2-2222-0h2-2222-334455-|
-0h2-2222-0h2-2222-0h2-2222-334455-|
     ....     ....     .... ......
Prechorus
-------------------------------------|
-------------------------------------|
-------------------------------------|
-------------------------------------|
-------------------------------------|
----------4p3-3333----------4p3-3333-|
-0h2-2222----------0h2-2222----------|
     ....     ....     ....     ....
-play verse 1
-play verse 2
-play pre-chorus (release PM near end)
Chorus
-----------------------------------|
-----------------------------------|
-----------------------------------|
-----------------------------------|
-5-5--1-1--0-0---------------------|
-5-5--1-1--0-0--233333-322222------|
-5-5--1-1--0-0--233333-322222------|

-----------------------------------|
-----------------------------------|
-----------------------------------|
-----------------------------------|
-5-5--8-8--0-0---------------------|
-5-5--8-8--0-0--233333-355555------|
-5-5--8-8--0-0--233333-355555------|

-play verse 1
-play verse 2
-play pre-chorus
-play chorus

Fill
-----------------------------------|
-----------------------------------|
-----------------------------------|
-----------------------------------|
-5~~~------------------------------|
-5~~~------------------------------|
-5~~~------------------------------|

Interlude 1
-----------------------------------|
-----------------------------------|
-----------------------------------|
-----------------------------------|
-0h2-2222-0h2-2222-0h2-2222--------|
-0h2-2222-0h2-2222-0h2-2222-334455-|
-0h2-2222-0h2-2222-0h2-2222-334455-|
     ....     ....     ....
-play chorus

Outro
-----------------------------------|
-----------------------------------|
-----------------------------------|
-----------------------------------|
-0--0--0---------------------------|
-0--0--0---------------------------|
-0--0--0---------------------------|
Comments