Mushroomhead - Fear Held Dear Chords & Tabs

 

Fear Held Dear Chords & Tabs

Mushroomhead Chords & Tabs

Version: 1 Type: Bass Tab

Fear Held Dear Bass Tab

   
Band- Mushroomhead
Song- Fear Held Dear

note: r= let ring

slow part
G|--------------------------------|
D|--------4r--------------4r------|
A|3r--------------3r--------------|
E|--------------------------------|
[ Tab from: http://www.guitartabs.cc/tabs/m/mushroomhead/fear_held_dear_btab.html ]
other slow part
G|--------------------------------|
D|--------4r----------------------|
A|3r--------------3r--------------|
E|------------------------4r------|

right before fast part
G|----------|
D|----------|
A|4-4-444444
E|----------

fast part
G|------------------------------------|
D|---------44444444----------44444444-|
A|33333333----------33333333----------|
E|------------------------------------|