Mushroomhead - Eternal Chords & Tabs

 

Eternal Chords & Tabs

Mushroomhead Chords & Tabs

Version: 1 Type: Tab

Eternal Tab

   
Band- Mushroomhead
Song- Eternal
[ Tab from: http://www.guitartabs.cc/tabs/m/mushroomhead/eternal_tab.html ]
Tuning:Drop C down 1 step
Get the EXACT rythm by listening to the CD
(A)
--------------|
--------------|
--------------|
-9-000000000--|
-9-000000000--|
   PM---------|
(B)
-------------|
-------------|
-------------|
-00000-------|
-00000-------|
 Pm--
(C)
------------------------------|
------------------------------|
------------------------------|
-0001111133333111133331111100-
 Pm--------------------------
(D)
-----
-----
-----
-0---
-0---
-0---
 Pm
(E)
----------|
----------|
----------|
-0-0-0-00-|
-0-0-0-00-| Each note is picked twice I think
-0-0-0-00-|
 Pm-------|
(F)
-----------------|
-----------------|
-----------------|
-----------------|
-6-4-7-6-7-6-4-6-|
-6-4-7-6-7-6-4-6-|
(G)
------------|
------------|
------------|
------------|
0000--00----|
0000--00----|
      Let ring Pm'd
(H)
------|
------|
------|
---6--|
---6--|
---6--|

Order:
A X4
B X3
C
B X3
C
B X3
C
B X3
D
E X8
F X3
D XAlot
F X8
G X8
H X4
A X8
F X16