Mushroomhead - Almost Gone Chords & Tabs

 

Almost Gone Chords & Tabs

Mushroomhead Chords & Tabs

Version: 1 Type: Tab 0 ratings
1 star 2 stars 3 stars 4 stars 5 stars
comments

Almost Gone Tab

Almost Gone from Mushroomhead
Tabbed by: 2fisted
Tuning: drop D 7 string AEADGBe 7 string not needed though.

Note: this is an altered version of a tab that was in the wrong tuning and incomplete.

Intro
-------|
-------|
-------|
-------|
-------|
-16/5--|
-16/5--|

Main riff(you can figure ou the amount of times)
----------------------|
----------------------|
----------------------|
----------------------|
-------------4b-------|
-4h6-4h6-4h6----6p4---|
-------------------8--|

Fill 1 x1
---------------------------------------------------|
---------------------------------------------------|
---------------------------------------------------|
---------------------------------------------------|
-4~-2~--------------4b-------------------4b--------|
-4~-2~--4h6-4h6-4h6----6p4---4h6-4h6-4h6----6p4----|
-4~-2~--------------------8---------------------8--|
[ Tab from: http://www.guitartabs.cc/tabs/m/mushroomhead/almost_gone_tab.html ]
----------------------------------------------|
----------------------------------------------|
----------------------------------------------|
----------------------------------------------|
-4~-2~--------------4b-------------------4b~--|
-4~-2~--4h6-4h6-4h6----6p4---4h6-4h6-4h6------|
-4~-2~--------------------8-------------------|

-main riff(verse)

Fill 2 x1
---------------------------------------------------|
---------------------------------------------------|
---------------------------------------------------|
---------------------------------------------------|
-4~-2~--------------4b-------------------4b--------|
-4~-2~--4h6-4h6-4h6----6p4---4h6-4h6-4h6----6p4----|
-4~-2~--------------------8---------------------8--|

--------|
--------|
--------|
--------|
-4~-2~--|
-4~-2~--|
-4~-2~--|

Chorus (you can count the times)
--------------------------|
--------------------------|
--------------------------|
----------xx----------xx--|
-6-5-4~-/-xx-5-4-3~-/-xx--|
-6-5-4~-/-xx-5-4-3~-/-xx--|
-6-5-4~-/----5-4-3~-/-----|

-play intro
-play main riff
-play Fill 2
-play chorus

Outro(little variations are put in using these notes on the ending of this riff, but 
fine to play it this way)

------------------------------  ---------|
------------------------------  ---------|
------------------------------  ---------|
------------------------------x1---------| repeat to end
-------------------4b---------  ---------|
-6~----4h6~----4h6----6p46~--  -6p46-----|
----68------68----------------  -----68--|
Comments