Muse - Yes Please Chords & Tabs

 

Yes Please Chords & Tabs

Muse Chords & Tabs

Version: 1 Type: Tab 0 ratings
1 star 2 stars 3 stars 4 stars 5 stars
comments

Yes Please Tab

MUSE
YES PLEASE
Tabbed by Myke, A_Violet_Fluid@hotmail.com.

Standard Tuning

Intro:

|---------------------------------------------------|
|---------------------------------------------------|
|---------------------------------------------------|
|-0-0-0-0-0-0-0-0-0-0-0-0-0-0-0-0-0-0-0-0-0-[etc]---|
|-------------------------------------------------0-|
|---------------------------------------------------|

|---------------------------------------------------------------------|
|--3-3-3-3-3-3-3-3-5-5-5-5-5-5-5-5-6-6-6-6-6-6-6-6-6-6-6-6-6-6-6-6-6--|
|--2-2-2-2-2-2-2-2-3-3-3-3-3-3-3-3-3-3-3-3-3-3-3-3-3-3-3-3-3-3-3-3-3--|
|--0-0-0-0-0-0-0-0-0-0-0-0-0-0-0-0-0-0-0-0-0-0-0-0-0-0-0-0-0-0-0-0-0--|
|---------------------------------------------------------------------|
|---------------------------------------------------------------------|

Verse:
[ Tab from: http://www.guitartabs.cc/tabs/m/muse/yes_please_tab.html ]
|-------------------------------------------------------------|
|-------------------------------------------------------------|
|-------------------------------------------------------------|
|-------------------------------------------------------------|
|------3-4-5-------------3-4-5-----------3-4-5----------3-4-5-|
|-4-0---------0-3-4-5-0--------0-3-4-5-0------0-3-4-5-0-------|

|------------------------------------------------------|
|------------------------------------------------------|
|------------------------------------------------------|
|------------------------------------------------------|
|-------------1-2-3------------1-2-3-------------1-2-3-|
|-0-3-4-5-0--------0-3-4-5-0--------0-3-4-5-0----------|

|--------------------------------------------------|
|--------------------------------------------------|
|------------10------------10------10--10--10--10--|
|--------------------------------------------------|
|----------8-------------8-------8----8---8---8----|
|-0-3-5-0-------0-3-5-0----------------------------|

:: Ultimate Guitar Archive :: 
http://www.ultimate-guitar.com 



Comments